0
SECTION
2
HEADER
9
$MEASUREMENT
70
1
0
ENDSEC
0
SECTION
2
TABLES
0
TABLE
2
LTYPE
0
LTYPE
72
65
70
64
2
CONTINUOUS
3
______
73
0
40
0
0
ENDTAB
0
TABLE
2
LAYER
0
LAYER
2
DEFAULT_255_2_778
70
0
62
255
6
CONTINUOUS
0
LAYER
2
DEFAULT_255_2_778_3
70
0
62
255
6
CONTINUOUS
0
ENDTAB
0
ENDSEC
0
SECTION
2
ENTITIES
0
LINE
8
DEFAULT_255_2_778
10
5.4242335
20
13.0968998
11
16.0075335
21
13.0968998
0
LINE
8
DEFAULT_255_2_778
10
16.0075335
20
13.0968998
11
16.0075335
21
-2.7781002
0
LINE
8
DEFAULT_255_2_778
10
16.0075335
20
-2.7781002
11
5.4242335
21
-2.7781002
0
LINE
8
DEFAULT_255_2_778
10
5.4242335
20
-2.7781002
11
5.4242335
21
13.0968998
0
LINE
8
DEFAULT_255_2_778_3
10
4.1013169
20
5.1594166
11
17.3305169
21
5.1594166
0
LINE
8
DEFAULT_255_2_778_3
10
4.1013169
20
7.8052166
11
17.3305169
21
7.8052166
0
ARC
8
DEFAULT_255_2_778
10
17.3272332
20
6.4853135
40
1.3202532
50
148.7968675
51
180.1300552
0
ARC
8
DEFAULT_255_2_778
10
17.3263736
20
6.4857468
40
1.3192936
50
97.5665172
51
148.7936255
0
ARC
8
DEFAULT_255_2_778
10
17.329479
20
6.4590258
40
1.3461909
50
89.9827905
51
97.547783
0
ARC
8
DEFAULT_255_2_778
10
17.3328802
20
6.4849668
40
1.3202532
50
58.7968675
51
90.1300552
0
ARC
8
DEFAULT_255_2_778
10
17.3333136
20
6.4858264
40
1.3192936
50
7.5665172
51
58.7936255
0
ARC
8
DEFAULT_255_2_778
10
17.3065926
20
6.482721
40
1.3461909
50
359.9827905
51
7.547783
0
ARC
8
DEFAULT_255_2_778
10
17.3325335
20
6.4793198
40
1.3202532
50
328.7968675
51
0.1300552
0
ARC
8
DEFAULT_255_2_778
10
17.3333931
20
6.4788864
40
1.3192936
50
277.5665172
51
328.7936255
0
ARC
8
DEFAULT_255_2_778
10
17.3302877
20
6.5056074
40
1.3461909
50
269.9827905
51
277.547783
0
ARC
8
DEFAULT_255_2_778
10
17.3268865
20
6.4796665
40
1.3202532
50
238.7968675
51
270.1300552
0
ARC
8
DEFAULT_255_2_778
10
17.3264532
20
6.4788069
40
1.3192936
50
187.5665172
51
238.7936255
0
ARC
8
DEFAULT_255_2_778
10
17.3531742
20
6.4819123
40
1.3461909
50
179.9827905
51
187.547783
0
LINE
8
DEFAULT_255_2_778
10
16.0069834
20
6.4823166
11
16.0069834
21
6.4823166
0
ARC
8
DEFAULT_255_2_778
10
4.0986332
20
6.4853135
40
1.3202532
50
148.7968675
51
180.1300552
0
ARC
8
DEFAULT_255_2_778
10
4.0977736
20
6.4857468
40
1.3192936
50
97.5665172
51
148.7936255
0
ARC
8
DEFAULT_255_2_778
10
4.100879
20
6.4590258
40
1.3461909
50
89.9827905
51
97.547783
0
ARC
8
DEFAULT_255_2_778
10
4.1042802
20
6.4849668
40
1.3202532
50
58.7968675
51
90.1300552
0
ARC
8
DEFAULT_255_2_778
10
4.1047136
20
6.4858264
40
1.3192936
50
7.5665172
51
58.7936255
0
ARC
8
DEFAULT_255_2_778
10
4.0779926
20
6.482721
40
1.3461909
50
359.9827905
51
7.547783
0
ARC
8
DEFAULT_255_2_778
10
4.1039335
20
6.4793198
40
1.3202532
50
328.7968675
51
0.1300552
0
ARC
8
DEFAULT_255_2_778
10
4.1047931
20
6.4788864
40
1.3192936
50
277.5665172
51
328.7936255
0
ARC
8
DEFAULT_255_2_778
10
4.1016877
20
6.5056074
40
1.3461909
50
269.9827905
51
277.547783
0
ARC
8
DEFAULT_255_2_778
10
4.0982865
20
6.4796665
40
1.3202532
50
238.7968675
51
270.1300552
0
ARC
8
DEFAULT_255_2_778
10
4.0978532
20
6.4788069
40
1.3192936
50
187.5665172
51
238.7936255
0
ARC
8
DEFAULT_255_2_778
10
4.1245742
20
6.4819123
40
1.3461909
50
179.9827905
51
187.547783
0
LINE
8
DEFAULT_255_2_778
10
2.7783834
20
6.4823166
11
2.7783834
21
6.4823166
0
ENDSEC
0
EOF