0
SECTION
2
HEADER
9
$MEASUREMENT
70
1
0
ENDSEC
0
SECTION
2
TABLES
0
TABLE
2
LTYPE
0
LTYPE
72
65
70
64
2
CONTINUOUS
3
______
73
0
40
0
0
ENDTAB
0
TABLE
2
LAYER
0
LAYER
2
DEFAULT_255_2_778
70
0
62
255
6
CONTINUOUS
0
LAYER
2
DEFAULT_255_2_778_5
70
0
62
255
6
CONTINUOUS
0
ENDTAB
0
ENDSEC
0
SECTION
2
ENTITIES
0
LINE
8
DEFAULT_255_2_778
10
2.7781335
20
13.0968998
11
13.3614335
21
13.0968998
0
LINE
8
DEFAULT_255_2_778
10
13.3614335
20
13.0968998
11
13.3614335
21
-2.7781002
0
LINE
8
DEFAULT_255_2_778
10
13.3614335
20
-2.7781002
11
2.7781335
21
-2.7781002
0
LINE
8
DEFAULT_255_2_778
10
2.7781335
20
-2.7781002
11
2.7781335
21
13.0968998
0
LINE
8
DEFAULT_255_2_778
10
2.7781335
20
10.451
11
6.7468335
21
10.451
0
LINE
8
DEFAULT_255_2_778
10
13.3614335
20
10.451
11
9.3927335
21
10.451
0
LINE
8
DEFAULT_255_2_778_5
10
6.7468834
20
10.4510082
11
6.7468834
21
1.1906082
0
LINE
8
DEFAULT_255_2_778_5
10
9.3926834
20
10.4510082
11
9.3926834
21
1.1906082
0
LINE
8
DEFAULT_255_2_778
10
6.7468834
20
1.1906
11
9.3926834
21
1.1906
0
LINE
8
DEFAULT_255_2_778_5
10
2.7781335
20
-0.1323
11
13.3614335
21
-0.1323
0
ENDSEC
0
EOF