0
SECTION
2
HEADER
9
$MEASUREMENT
70
1
0
ENDSEC
0
SECTION
2
TABLES
0
TABLE
2
LTYPE
0
LTYPE
72
65
70
64
2
CONTINUOUS
3
______
73
0
40
0
0
ENDTAB
0
TABLE
2
LAYER
0
LAYER
2
DEFAULT_255_2_778
70
0
62
255
6
CONTINUOUS
0
ENDTAB
0
ENDSEC
0
SECTION
2
ENTITIES
0
LINE
8
DEFAULT_255_2_778
10
2.7781335
20
13.0968998
11
13.3614335
21
13.0968998
0
LINE
8
DEFAULT_255_2_778
10
13.3614335
20
13.0968998
11
13.3614335
21
3.1749998
0
LINE
8
DEFAULT_255_2_778
10
13.3614335
20
3.1749998
11
8.0698335
21
-2.7781002
0
LINE
8
DEFAULT_255_2_778
10
8.0698335
20
-2.7781002
11
2.7781335
21
3.1749998
0
LINE
8
DEFAULT_255_2_778
10
2.7781335
20
3.1749998
11
2.7781335
21
13.0968998
0
LINE
8
DEFAULT_255_2_778
10
8.0698
20
1.1906082
11
8.0698
21
10.4510082
0
LINE
8
DEFAULT_255_2_778
10
8.0698
20
4.8780759
11
8.0698
21
13.0968759
0
LINE
8
DEFAULT_255_2_778
10
8.0697584
20
3.836376
11
7.1437584
21
4.993976
0
LINE
8
DEFAULT_255_2_778
10
7.1437584
20
4.993976
11
8.9958584
21
4.993976
0
LINE
8
DEFAULT_255_2_778
10
8.9958584
20
4.993976
11
8.0697584
21
3.836376
0
LINE
8
DEFAULT_255_2_778
10
8.0698
20
1.1907248
11
8.0698
21
13.0969248
0
ARC
8
DEFAULT_255_2_778
10
8.1001059
20
5.1632294
40
3.9990575
50
164.958672
51
180.0541499
0
ARC
8
DEFAULT_255_2_778
10
8.0517844
20
5.1728887
40
3.9498864
50
139.5324886
51
164.9120823
0
ARC
8
DEFAULT_255_2_778
10
8.0604121
20
5.1696868
40
3.9585294
50
107.8307628
51
139.5782791
0
ARC
8
DEFAULT_255_2_778
10
8.0632531
20
5.1471154
40
3.9808888
50
91.6628438
51
107.7702122
0
ARC
8
DEFAULT_255_2_778
10
8.0696728
20
5.0473686
40
4.0807814
50
89.9989151
51
91.7123026
0
ARC
8
DEFAULT_255_2_778
10
8.0735333
20
5.128808
40
3.9993437
50
74.9592121
51
90.0541994
0
ARC
8
DEFAULT_255_2_778
10
8.0832483
20
5.1773176
40
3.9499763
50
49.5331489
51
74.9127022
0
ARC
8
DEFAULT_255_2_778
10
8.0801326
20
5.1687957
40
3.958483
50
17.8308607
51
49.5788931
0
ARC
8
DEFAULT_255_2_778
10
8.057535
20
5.1659475
40
3.9808695
50
1.662844
51
17.7702931
0
ARC
8
DEFAULT_255_2_778
10
7.9577688
20
5.1595272
40
4.0807814
50
359.9989151
51
1.7123026
0
ARC
8
DEFAULT_255_2_778
10
8.0392193
20
5.155666
40
3.9993326
50
344.9591794
51
0.05421
0
ARC
8
DEFAULT_255_2_778
10
8.0877606
20
5.1459458
40
3.9499331
50
319.5327264
51
344.9126214
0
ARC
8
DEFAULT_255_2_778
10
8.0791769
20
5.1491261
40
3.9585286
50
287.8301403
51
319.57834
0
ARC
8
DEFAULT_255_2_778
10
8.0762544
20
5.1719298
40
3.9811341
50
271.6627163
51
287.7696917
0
ARC
8
DEFAULT_255_2_778
10
8.0698274
20
5.2718019
40
4.0811521
50
269.9989151
51
271.7122237
0
ARC
8
DEFAULT_255_2_778
10
8.0659699
20
5.1896946
40
3.9990465
50
254.9586392
51
270.0541605
0
ARC
8
DEFAULT_255_2_778
10
8.0563055
20
5.1413414
40
3.9498431
50
229.5320661
51
254.9120015
0
ARC
8
DEFAULT_255_2_778
10
8.0595719
20
5.1500308
40
3.958575
50
197.8300424
51
229.577726
0
ARC
8
DEFAULT_255_2_778
10
8.0823494
20
5.1529462
40
3.9811535
50
181.6627161
51
197.7696108
0
ARC
8
DEFAULT_255_2_778
10
8.1822021
20
5.1593726
40
4.0811521
50
179.9989151
51
181.7122237
0
LINE
8
DEFAULT_255_2_778
10
4.1010501
20
5.1594499
11
4.1010501
21
5.1594499
0
ARC
8
DEFAULT_255_2_778
10
8.85082
20
7.3897689
40
1.7058991
50
45.1392527
51
48.9503918
0
ARC
8
DEFAULT_255_2_778
10
8.3396472
20
6.804612
40
2.4828838
50
48.9223127
51
52.0638234
0
ARC
8
DEFAULT_255_2_778
10
7.7993605
20
6.113724
40
3.3599439
50
52.0403654
51
54.6432353
0
ARC
8
DEFAULT_255_2_778
10
7.2966641
20
5.4074544
40
4.2268458
50
54.6257857
51
56.7947849
0
ARC
8
DEFAULT_255_2_778
10
6.8247649
20
4.6861756
40
5.0887809
50
56.7965393
51
59.1347975
0
ARC
8
DEFAULT_255_2_778
10
6.5298932
20
4.1982117
40
5.6589135
50
59.1066944
51
59.9732669
0
ARC
8
DEFAULT_255_2_778
10
6.2321942
20
3.6756755
40
6.2602919
50
60.007439
51
63.1813839
0
ARC
8
DEFAULT_255_2_778
10
5.9752328
20
3.1710259
40
6.8265939
50
63.1676114
51
66.8807675
0
ARC
8
DEFAULT_255_2_778
10
6.0115782
20
3.2671784
40
6.723894
50
66.8438932
51
72.21071
0
ARC
8
DEFAULT_255_2_778
10
6.3766354
20
4.4853417
40
5.4524993
50
71.9525502
51
83.354434
0
ARC
8
DEFAULT_255_2_778
10
6.5428513
20
5.6871594
40
4.2396005
50
83.7060298
51
87.2421771
0
LINE
8
DEFAULT_255_2_778
10
4.1010376
20
11.7739499
11
6.7468376
21
11.7739499
0
LINE
8
DEFAULT_255_2_778
10
6.7468376
20
11.7739499
11
6.7468376
21
3.8364499
0
LINE
8
DEFAULT_255_2_778
10
6.7468376
20
3.8364499
11
4.1010376
21
3.8364499
0
LINE
8
DEFAULT_255_2_778
10
12.0384834
20
11.7739499
11
9.3926834
21
11.7739499
0
LINE
8
DEFAULT_255_2_778
10
9.3926834
20
11.7739499
11
9.3926834
21
3.8364499
0
LINE
8
DEFAULT_255_2_778
10
9.3926834
20
3.8364499
11
12.0384834
21
3.8364499
0
ARC
8
DEFAULT_255_2_778
10
8.1001059
20
5.1632294
40
3.9990575
50
164.958672
51
180.0541499
0
ARC
8
DEFAULT_255_2_778
10
8.0517844
20
5.1728887
40
3.9498864
50
139.5324886
51
164.9120823
0
ARC
8
DEFAULT_255_2_778
10
8.0604121
20
5.1696868
40
3.9585294
50
107.8307628
51
139.5782791
0
ARC
8
DEFAULT_255_2_778
10
8.0632531
20
5.1471154
40
3.9808888
50
91.6628438
51
107.7702122
0
ARC
8
DEFAULT_255_2_778
10
8.0696728
20
5.0473686
40
4.0807814
50
89.9989151
51
91.7123026
0
ARC
8
DEFAULT_255_2_778
10
8.0735333
20
5.128808
40
3.9993437
50
74.9592121
51
90.0541994
0
ARC
8
DEFAULT_255_2_778
10
8.0832483
20
5.1773176
40
3.9499763
50
49.5331489
51
74.9127022
0
ARC
8
DEFAULT_255_2_778
10
8.0801326
20
5.1687957
40
3.958483
50
17.8308607
51
49.5788931
0
ARC
8
DEFAULT_255_2_778
10
8.057535
20
5.1659475
40
3.9808695
50
1.662844
51
17.7702931
0
ARC
8
DEFAULT_255_2_778
10
7.9577688
20
5.1595272
40
4.0807814
50
359.9989151
51
1.7123026
0
ARC
8
DEFAULT_255_2_778
10
8.0392193
20
5.155666
40
3.9993326
50
344.9591794
51
0.05421
0
ARC
8
DEFAULT_255_2_778
10
8.0877606
20
5.1459458
40
3.9499331
50
319.5327264
51
344.9126214
0
ARC
8
DEFAULT_255_2_778
10
8.0791769
20
5.1491261
40
3.9585286
50
287.8301403
51
319.57834
0
ARC
8
DEFAULT_255_2_778
10
8.0762544
20
5.1719298
40
3.9811341
50
271.6627163
51
287.7696917
0
ARC
8
DEFAULT_255_2_778
10
8.0698274
20
5.2718019
40
4.0811521
50
269.9989151
51
271.7122237
0
ARC
8
DEFAULT_255_2_778
10
8.0659699
20
5.1896946
40
3.9990465
50
254.9586392
51
270.0541605
0
ARC
8
DEFAULT_255_2_778
10
8.0563055
20
5.1413414
40
3.9498431
50
229.5320661
51
254.9120015
0
ARC
8
DEFAULT_255_2_778
10
8.0595719
20
5.1500308
40
3.958575
50
197.8300424
51
229.577726
0
ARC
8
DEFAULT_255_2_778
10
8.0823494
20
5.1529462
40
3.9811535
50
181.6627161
51
197.7696108
0
ARC
8
DEFAULT_255_2_778
10
8.1822021
20
5.1593726
40
4.0811521
50
179.9989151
51
181.7122237
0
LINE
8
DEFAULT_255_2_778
10
4.1010501
20
5.1594499
11
4.1010501
21
5.1594499
0
LINE
8
DEFAULT_255_2_778
10
4.1010501
20
5.1594333
11
8.0697501
21
7.8052333
0
LINE
8
DEFAULT_255_2_778
10
8.0697501
20
7.8052333
11
8.0697501
21
2.5135333
0
LINE
8
DEFAULT_255_2_778
10
8.0697501
20
2.5135333
11
12.0385501
21
5.1594333
0
LINE
8
DEFAULT_255_2_778
10
8.0698335
20
-0.1323169
11
8.0698335
21
13.0968831
0
LINE
8
DEFAULT_255_2_778
10
12.0385335
20
3.8364831
11
8.0698335
21
-0.1323169
0
LINE
8
DEFAULT_255_2_778
10
8.0698335
20
-0.1323169
11
4.1010335
21
3.8364831
0
LINE
8
DEFAULT_255_2_778
10
2.7781335
20
10.4510831
11
5.4239335
21
10.4510831
0
LINE
8
DEFAULT_255_2_778
10
5.4239335
20
10.4510831
11
5.4239335
21
11.7739831
0
LINE
8
DEFAULT_255_2_778
10
13.3614335
20
10.4510831
11
10.7156335
21
10.4510831
0
LINE
8
DEFAULT_255_2_778
10
10.7156335
20
10.4510831
11
10.7156335
21
11.7739831
0
LINE
8
DEFAULT_255_2_778
10
8.0697667
20
13.0968665
11
5.4239667
21
10.4510665
0
LINE
8
DEFAULT_255_2_778
10
8.0697667
20
10.4510665
11
8.0697667
21
13.0968665
0
LINE
8
DEFAULT_255_2_778
10
8.0697667
20
13.0968665
11
10.7156667
21
10.4510665
0
LINE
8
DEFAULT_255_2_778
10
5.4239667
20
9.1281665
11
10.7156667
21
9.1281665
0
LINE
8
DEFAULT_255_2_778
10
5.4239667
20
2.5135665
11
10.7156667
21
2.5135665
0
LINE
8
DEFAULT_255_2_778
10
8.0697501
20
13.0969248
11
8.0697501
21
10.4511248
0
LINE
8
DEFAULT_255_2_778
10
4.1010501
20
10.4511248
11
8.0697501
21
13.0969248
0
LINE
8
DEFAULT_255_2_778
10
8.0697501
20
13.0969248
11
12.0385501
21
10.4511248
0
LINE
8
DEFAULT_255_2_778
10
8.0697501
20
1.1907248
11
8.0697501
21
5.1594248
0
LINE
8
DEFAULT_255_2_778
10
8.0697501
20
9.1282248
11
8.0697501
21
11.7740248
0
LINE
8
DEFAULT_255_2_778
10
8.0698
20
1.1906665
11
8.0698
21
5.1593665
0
LINE
8
DEFAULT_255_2_778
10
8.0698
20
9.1281665
11
8.0698
21
11.7739665
0
ENDSEC
0
EOF