0
SECTION
2
HEADER
9
$MEASUREMENT
70
1
0
ENDSEC
0
SECTION
2
TABLES
0
TABLE
2
LTYPE
0
LTYPE
72
65
70
64
2
CONTINUOUS
3
______
73
0
40
0
0
ENDTAB
0
TABLE
2
LAYER
0
LAYER
2
DEFAULT_255_2_778
70
0
62
255
6
CONTINUOUS
0
ENDTAB
0
ENDSEC
0
SECTION
2
ENTITIES
0
LINE
8
DEFAULT_255_2_778
10
2.7781335
20
10.4510665
11
13.3614335
21
10.4510665
0
LINE
8
DEFAULT_255_2_778
10
13.3614335
20
10.4510665
11
13.3614335
21
-0.1322335
0
LINE
8
DEFAULT_255_2_778
10
13.3614335
20
-0.1322335
11
2.7781335
21
-0.1322335
0
LINE
8
DEFAULT_255_2_778
10
2.7781335
20
-0.1322335
11
2.7781335
21
10.4510665
0
LINE
8
DEFAULT_255_2_778
10
4.1010501
20
1.1907
11
12.0385501
21
1.1907
0
LINE
8
DEFAULT_255_2_778
10
8.0697501
20
-2.7781169
11
8.0697501
21
10.4510831
0
LINE
8
DEFAULT_255_2_778
10
4.1010501
20
7.8052831
11
8.0697501
21
10.4510831
0
LINE
8
DEFAULT_255_2_778
10
4.1010501
20
5.1593831
11
8.0697501
21
7.8052831
0
LINE
8
DEFAULT_255_2_778
10
8.0697501
20
7.8052831
11
12.0385501
21
5.1593831
0
LINE
8
DEFAULT_255_2_778
10
8.0698251
20
10.4511166
11
12.0385251
21
7.8053166
0
ENDSEC
0
EOF