0
SECTION
2
HEADER
9
$MEASUREMENT
70
1
0
ENDSEC
0
SECTION
2
TABLES
0
TABLE
2
LTYPE
0
LTYPE
72
65
70
64
2
CONTINUOUS
3
______
73
0
40
0
0
ENDTAB
0
TABLE
2
LAYER
0
LAYER
2
DEFAULT_255_2_778
70
0
62
255
6
CONTINUOUS
0
ENDTAB
0
ENDSEC
0
SECTION
2
ENTITIES
0
LINE
8
DEFAULT_255_2_778
10
13.3614169
20
5.1593499
11
5.4239169
21
5.1593499
0
LINE
8
DEFAULT_255_2_778
10
5.4239169
20
5.1593499
11
2.7781169
21
5.1593499
0
LINE
8
DEFAULT_255_2_778
10
2.7781169
20
5.1593499
11
5.4239169
21
-2.7781501
0
LINE
8
DEFAULT_255_2_778
10
5.4239169
20
-2.7781501
11
13.3614169
21
-2.7781501
0
LINE
8
DEFAULT_255_2_778
10
13.3614169
20
-2.7781501
11
16.0073169
21
5.1593499
0
LINE
8
DEFAULT_255_2_778
10
16.0073169
20
5.1593499
11
13.3614169
21
5.1593499
0
LINE
8
DEFAULT_255_2_778
10
2.7781169
20
5.1593499
11
5.4239169
21
5.1593499
0
LINE
8
DEFAULT_255_2_778
10
5.4239169
20
5.1593499
11
5.4239169
21
-2.7781501
0
LINE
8
DEFAULT_255_2_778
10
5.4239169
20
-2.7781501
11
2.7781169
21
5.1593499
0
LINE
8
DEFAULT_255_2_778
10
16.0073169
20
5.1593499
11
13.3614169
21
5.1593499
0
LINE
8
DEFAULT_255_2_778
10
13.3614169
20
5.1593499
11
13.3614169
21
-2.7781501
0
LINE
8
DEFAULT_255_2_778
10
13.3614169
20
-2.7781501
11
16.0073169
21
5.1593499
0
LINE
8
DEFAULT_255_2_778
10
12.0385667
20
-1.4552667
11
6.7468667
21
3.8364333
0
LINE
8
DEFAULT_255_2_778
10
6.7468667
20
-1.4552667
11
12.0385667
21
3.8364333
0
ENDSEC
0
EOF