0
SECTION
2
HEADER
9
$MEASUREMENT
70
1
0
ENDSEC
0
SECTION
2
TABLES
0
TABLE
2
LTYPE
0
LTYPE
72
65
70
64
2
CONTINUOUS
3
______
73
0
40
0
0
ENDTAB
0
TABLE
2
LAYER
0
LAYER
2
DEFAULT_255_2_778
70
0
62
255
6
CONTINUOUS
0
ENDTAB
0
ENDSEC
0
SECTION
2
ENTITIES
0
LINE
8
DEFAULT_255_2_778
10
8.0693
20
-2.7781376
11
8.0693
21
3.1749624
0
LINE
8
DEFAULT_255_2_778
10
26.5912
20
-2.7781376
11
26.5912
21
3.1749624
0
ARC
8
DEFAULT_255_2_778
10
17.5943616
20
14.4238617
40
14.8162451
50
172.8103795
51
180.0157732
0
ARC
8
DEFAULT_255_2_778
10
17.3236239
20
14.4571915
40
14.5434648
50
164.2301024
51
172.8071643
0
ARC
8
DEFAULT_255_2_778
10
17.2374559
20
14.4798992
40
14.4543688
50
153.1704499
51
164.2238979
0
ARC
8
DEFAULT_255_2_778
10
17.3164083
20
14.4340412
40
14.5455207
50
119.2365111
51
153.1496228
0
ARC
8
DEFAULT_255_2_778
10
17.2712145
20
14.5095199
40
14.457584
50
107.5276713
51
119.2263195
0
ARC
8
DEFAULT_255_2_778
10
17.2866884
20
14.4545162
40
14.5146944
50
98.5173342
51
107.5205272
0
ARC
8
DEFAULT_255_2_778
10
17.3220356
20
14.2120969
40
14.7596754
50
91.0515595
51
98.513658
0
ARC
8
DEFAULT_255_2_778
10
17.3301094
20
13.9850995
40
14.9867834
50
89.9995884
51
91.0664947
0
ARC
8
DEFAULT_255_2_778
10
17.3342943
20
14.1559317
40
14.8159517
50
82.810308
51
90.0157675
0
ARC
8
DEFAULT_255_2_778
10
17.3676045
20
14.4265125
40
14.5433296
50
74.2300104
51
82.8070925
0
ARC
8
DEFAULT_255_2_778
10
17.3902668
20
14.5125195
40
14.454401
50
63.1704139
51
74.2238053
0
ARC
8
DEFAULT_255_2_778
10
17.3443743
20
14.4334914
40
14.5456359
50
29.1756229
51
63.1496006
0
ARC
8
DEFAULT_255_2_778
10
17.4200879
20
14.4787864
40
14.4574476
50
17.4906237
51
29.1651648
0
ARC
8
DEFAULT_255_2_778
10
17.3646575
20
14.4632053
40
14.5149983
50
8.4992052
51
17.4835231
0
ARC
8
DEFAULT_255_2_778
10
17.1223113
20
14.4279352
40
14.7598957
50
1.0493377
51
8.4955757
0
ARC
8
DEFAULT_255_2_778
10
16.8971693
20
14.4198997
40
14.9851478
50
359.9995535
51
1.0642915
0
ARC
8
DEFAULT_255_2_778
10
17.0665685
20
14.4157056
40
14.8157491
50
352.8102093
51
0.0157679
0
ARC
8
DEFAULT_255_2_778
10
17.3370776
20
14.3824053
40
14.5431992
50
344.2298251
51
352.8069887
0
ARC
8
DEFAULT_255_2_778
10
17.4229824
20
14.3597739
40
14.4543773
50
333.170186
51
344.2236115
0
ARC
8
DEFAULT_255_2_778
10
17.3438112
20
14.4057483
40
14.545777
50
299.1756282
51
333.1493407
0
ARC
8
DEFAULT_255_2_778
10
17.3891471
20
14.3299533
40
14.4574977
50
287.4907108
51
299.1651859
0
ARC
8
DEFAULT_255_2_778
10
17.3736123
20
14.3852364
40
14.514894
50
278.4992839
51
287.48361
0
ARC
8
DEFAULT_255_2_778
10
17.3383659
20
14.627424
40
14.7596311
50
271.0493567
51
278.4956531
0
ARC
8
DEFAULT_255_2_778
10
17.3303339
20
14.8524761
40
14.9847932
50
269.9995535
51
271.0643038
0
ARC
8
DEFAULT_255_2_778
10
17.3261382
20
14.6837249
40
14.8160425
50
262.8102808
51
270.0157736
0
ARC
8
DEFAULT_255_2_778
10
17.2928184
20
14.4130588
40
14.5433344
50
254.2299171
51
262.8070605
0
ARC
8
DEFAULT_255_2_778
10
17.2701415
20
14.326993
40
14.4543452
50
243.1702219
51
254.223704
0
ARC
8
DEFAULT_255_2_778
10
17.3160631
20
14.4060607
40
14.5456287
50
209.1753764
51
243.1493774
0
ARC
8
DEFAULT_255_2_778
10
17.2403878
20
14.3608008
40
14.457491
50
197.4905029
51
209.1649643
0
ARC
8
DEFAULT_255_2_778
10
17.2958163
20
14.3763806
40
14.5150392
50
188.4991698
51
197.4834
0
ARC
8
DEFAULT_255_2_778
10
17.5380941
20
14.411637
40
14.7598673
50
181.0493512
51
188.4955276
0
ARC
8
DEFAULT_255_2_778
10
17.7629102
20
14.4196661
40
14.9847932
50
179.9995535
51
181.0643038
0
LINE
8
DEFAULT_255_2_778
10
2.7781171
20
14.4197829
11
2.7781171
21
14.4197829
0
LINE
8
DEFAULT_255_2_778
10
2.7781
20
-2.7781419
11
2.7781
21
14.4197581
0
LINE
8
DEFAULT_255_2_778
10
31.8823
20
-2.7781419
11
31.8823
21
14.4197581
0
ENDSEC
0
EOF