0
SECTION
2
HEADER
9
$MEASUREMENT
70
1
0
ENDSEC
0
SECTION
2
TABLES
0
TABLE
2
LTYPE
0
LTYPE
72
65
70
64
2
CONTINUOUS
3
______
73
0
40
0
0
ENDTAB
0
TABLE
2
LAYER
0
LAYER
2
DEFAULT_255_2_778
70
0
62
255
6
CONTINUOUS
0
ENDTAB
0
ENDSEC
0
SECTION
2
ENTITIES
0
LINE
8
DEFAULT_255_2_778
10
2.7781169
20
3.8364166
11
16.0073169
21
3.8364166
0
LINE
8
DEFAULT_255_2_778
10
16.0073169
20
3.8364166
11
16.0073169
21
1.1906166
0
LINE
8
DEFAULT_255_2_778
10
16.0073169
20
1.1906166
11
2.7781169
21
1.1906166
0
LINE
8
DEFAULT_255_2_778
10
2.7781169
20
1.1906166
11
2.7781169
21
3.8364166
0
ARC
8
DEFAULT_255_2_778
10
9.4028952
20
-1.4515732
40
2.6560309
50
160.7095027
51
180.0775207
0
ARC
8
DEFAULT_255_2_778
10
9.3868206
20
-1.4496759
40
2.6402344
50
102.0301591
51
160.6331218
0
ARC
8
DEFAULT_255_2_778
10
9.3909006
20
-1.4850592
40
2.6756931
50
89.9621802
51
101.9576865
0
ARC
8
DEFAULT_255_2_778
10
9.3963411
20
-1.4647765
40
2.6554123
50
70.3567975
51
90.0792807
0
ARC
8
DEFAULT_255_2_778
10
9.3981767
20
-1.4494071
40
2.6403224
50
11.9023555
51
70.2821965
0
ARC
8
DEFAULT_255_2_778
10
9.3626547
20
-1.4534301
40
2.6759126
50
359.9628159
51
11.829777
0
ARC
8
DEFAULT_255_2_778
10
9.3833283
20
-1.4588377
40
2.655241
50
340.3554002
51
0.0792127
0
ARC
8
DEFAULT_255_2_778
10
9.3984203
20
-1.4605417
40
2.6404568
50
281.9019784
51
340.2801285
0
ARC
8
DEFAULT_255_2_778
10
9.3944012
20
-1.4250891
40
2.6759781
50
269.962864
51
281.8296308
0
ARC
8
DEFAULT_255_2_778
10
9.3889903
20
-1.4459296
40
2.6551397
50
250.3550189
51
270.0793355
0
ARC
8
DEFAULT_255_2_778
10
9.3873162
20
-1.4610206
40
2.6403665
50
191.9001656
51
250.2791382
0
ARC
8
DEFAULT_255_2_778
10
9.4230473
20
-1.4569021
40
2.676181
50
179.9628467
51
191.8287004
0
LINE
8
DEFAULT_255_2_778
10
6.7468667
20
-1.4551667
11
6.7468667
21
-1.4551667
0
LINE
8
DEFAULT_255_2_778
10
9.3926938
20
-1.4551959
11
7.2098938
21
-2.9103959
0
ENDSEC
0
EOF