0
SECTION
2
HEADER
9
$MEASUREMENT
70
1
0
ENDSEC
0
SECTION
2
TABLES
0
TABLE
2
LTYPE
0
LTYPE
72
65
70
64
2
CONTINUOUS
3
______
73
0
40
0
0
ENDTAB
0
TABLE
2
LAYER
0
LAYER
2
DEFAULT_255_2_778
70
0
62
255
6
CONTINUOUS
0
ENDTAB
0
ENDSEC
0
SECTION
2
ENTITIES
0
LINE
8
DEFAULT_255_2_778
10
2.7781667
20
0.5291166
11
8.0698667
21
0.5291166
0
LINE
8
DEFAULT_255_2_778
10
8.0698667
20
0.5291166
11
8.0698667
21
-2.1166834
0
LINE
8
DEFAULT_255_2_778
10
8.0698667
20
-2.1166834
11
2.7781667
21
-2.1166834
0
LINE
8
DEFAULT_255_2_778
10
2.7781667
20
-2.1166834
11
2.7781667
21
0.5291166
0
ARC
8
DEFAULT_255_2_778
10
3.4381557
20
-2.7767557
40
0.6600157
50
89.871003
51
180.128997
0
ARC
8
DEFAULT_255_2_778
10
3.441049
20
-2.7767345
40
0.6599943
50
359.8691577
51
90.1221758
0
ARC
8
DEFAULT_255_2_778
10
3.4410705
20
-2.7796705
40
0.6599728
50
269.8759594
51
0.1240406
0
ARC
8
DEFAULT_255_2_778
10
3.4381345
20
-2.7796492
40
0.6599942
50
179.8778094
51
270.1308423
0
LINE
8
DEFAULT_255_2_778
10
2.7781417
20
-2.7782417
11
2.7781417
21
-2.7782417
0
ARC
8
DEFAULT_255_2_778
10
7.4068557
20
-2.7767557
40
0.6600157
50
89.871003
51
180.128997
0
ARC
8
DEFAULT_255_2_778
10
7.409749
20
-2.7767345
40
0.6599943
50
359.8691577
51
90.1221758
0
ARC
8
DEFAULT_255_2_778
10
7.4097705
20
-2.7796705
40
0.6599728
50
269.8759594
51
0.1240406
0
ARC
8
DEFAULT_255_2_778
10
7.4068345
20
-2.7796492
40
0.6599942
50
179.8778094
51
270.1308423
0
LINE
8
DEFAULT_255_2_778
10
6.7468417
20
-2.7782417
11
6.7468417
21
-2.7782417
0
ENDSEC
0
EOF