0
SECTION
2
HEADER
9
$MEASUREMENT
70
1
0
ENDSEC
0
SECTION
2
TABLES
0
TABLE
2
LTYPE
0
LTYPE
72
65
70
64
2
CONTINUOUS
3
______
73
0
40
0
0
ENDTAB
0
TABLE
2
LAYER
0
LAYER
2
DEFAULT_255_2_778
70
0
62
255
6
CONTINUOUS
0
ENDTAB
0
ENDSEC
0
SECTION
2
ENTITIES
0
ARC
8
DEFAULT_255_2_778
10
4.0983332
20
-1.4522865
40
1.3202532
50
148.7968675
51
180.1300552
0
ARC
8
DEFAULT_255_2_778
10
4.0974736
20
-1.4518532
40
1.3192936
50
97.5665172
51
148.7936255
0
ARC
8
DEFAULT_255_2_778
10
4.100579
20
-1.4785742
40
1.3461909
50
89.9827905
51
97.547783
0
ARC
8
DEFAULT_255_2_778
10
4.1039802
20
-1.4526332
40
1.3202532
50
58.7968675
51
90.1300552
0
ARC
8
DEFAULT_255_2_778
10
4.1044136
20
-1.4517736
40
1.3192936
50
7.5665172
51
58.7936255
0
ARC
8
DEFAULT_255_2_778
10
4.0776926
20
-1.454879
40
1.3461909
50
359.9827905
51
7.547783
0
ARC
8
DEFAULT_255_2_778
10
4.1036335
20
-1.4582802
40
1.3202532
50
328.7968675
51
0.1300552
0
ARC
8
DEFAULT_255_2_778
10
4.1044931
20
-1.4587136
40
1.3192936
50
277.5665172
51
328.7936255
0
ARC
8
DEFAULT_255_2_778
10
4.1013877
20
-1.4319926
40
1.3461909
50
269.9827905
51
277.547783
0
ARC
8
DEFAULT_255_2_778
10
4.0979865
20
-1.4579335
40
1.3202532
50
238.7968675
51
270.1300552
0
ARC
8
DEFAULT_255_2_778
10
4.0975532
20
-1.4587931
40
1.3192936
50
187.5665172
51
238.7936255
0
ARC
8
DEFAULT_255_2_778
10
4.1242742
20
-1.4556877
40
1.3461909
50
179.9827905
51
187.547783
0
LINE
8
DEFAULT_255_2_778
10
2.7780834
20
-1.4552834
11
2.7780834
21
-1.4552834
0
ARC
8
DEFAULT_255_2_778
10
14.6817332
20
-1.4522865
40
1.3202532
50
148.7968675
51
180.1300552
0
ARC
8
DEFAULT_255_2_778
10
14.6808736
20
-1.4518532
40
1.3192936
50
97.5665172
51
148.7936255
0
ARC
8
DEFAULT_255_2_778
10
14.683979
20
-1.4785742
40
1.3461909
50
89.9827905
51
97.547783
0
ARC
8
DEFAULT_255_2_778
10
14.6873802
20
-1.4526332
40
1.3202532
50
58.7968675
51
90.1300552
0
ARC
8
DEFAULT_255_2_778
10
14.6878136
20
-1.4517736
40
1.3192936
50
7.5665172
51
58.7936255
0
ARC
8
DEFAULT_255_2_778
10
14.6610926
20
-1.454879
40
1.3461909
50
359.9827905
51
7.547783
0
ARC
8
DEFAULT_255_2_778
10
14.6870335
20
-1.4582802
40
1.3202532
50
328.7968675
51
0.1300552
0
ARC
8
DEFAULT_255_2_778
10
14.6878931
20
-1.4587136
40
1.3192936
50
277.5665172
51
328.7936255
0
ARC
8
DEFAULT_255_2_778
10
14.6847877
20
-1.4319926
40
1.3461909
50
269.9827905
51
277.547783
0
ARC
8
DEFAULT_255_2_778
10
14.6813865
20
-1.4579335
40
1.3202532
50
238.7968675
51
270.1300552
0
ARC
8
DEFAULT_255_2_778
10
14.6809532
20
-1.4587931
40
1.3192936
50
187.5665172
51
238.7936255
0
ARC
8
DEFAULT_255_2_778
10
14.7076742
20
-1.4556877
40
1.3461909
50
179.9827905
51
187.547783
0
LINE
8
DEFAULT_255_2_778
10
13.3614834
20
-1.4552834
11
13.3614834
21
-1.4552834
0
LINE
8
DEFAULT_255_2_778
10
2.7781169
20
1.1905583
11
16.0073169
21
1.1905583
0
LINE
8
DEFAULT_255_2_778
10
16.0073169
20
1.1905583
11
16.0073169
21
-0.1323417
0
LINE
8
DEFAULT_255_2_778
10
16.0073169
20
-0.1323417
11
2.7781169
21
-0.1323417
0
LINE
8
DEFAULT_255_2_778
10
2.7781169
20
-0.1323417
11
2.7781169
21
1.1905583
0
ENDSEC
0
EOF