0
SECTION
2
HEADER
9
$MEASUREMENT
70
1
0
ENDSEC
0
SECTION
2
TABLES
0
TABLE
2
LTYPE
0
LTYPE
72
65
70
64
2
CONTINUOUS
3
______
73
0
40
0
0
ENDTAB
0
TABLE
2
LAYER
0
LAYER
2
DEFAULT_255_2_778
70
0
62
255
6
CONTINUOUS
0
ENDTAB
0
ENDSEC
0
SECTION
2
ENTITIES
0
LINE
8
DEFAULT_255_2_778
10
13.3614169
20
5.1593499
11
5.4239169
21
5.1593499
0
LINE
8
DEFAULT_255_2_778
10
5.4239169
20
5.1593499
11
2.7781169
21
-2.7781501
0
LINE
8
DEFAULT_255_2_778
10
2.7781169
20
-2.7781501
11
16.0073169
21
-2.7781501
0
LINE
8
DEFAULT_255_2_778
10
16.0073169
20
-2.7781501
11
13.3614169
21
5.1593499
0
LINE
8
DEFAULT_255_2_778
10
3.6578272
20
-0.1323
11
15.0777272
21
-0.1323
0
LINE
8
DEFAULT_255_2_778
10
5.424
20
-2.7780834
11
5.424
21
-0.1322834
0
LINE
8
DEFAULT_255_2_778
10
13.3615
20
-2.7780834
11
13.3615
21
-0.1322834
0
LINE
8
DEFAULT_255_2_778
10
9.3927
20
5.1594166
11
9.3927
21
2.5136166
0
LINE
8
DEFAULT_255_2_778
10
8.0697834
20
2.5135
11
10.7155834
21
2.5135
0
LINE
8
DEFAULT_255_2_778
10
8.0697834
20
1.1906
11
10.7155834
21
1.1906
0
LINE
8
DEFAULT_255_2_778
10
9.3927
20
1.1906583
11
9.3927
21
-0.1322417
0
ENDSEC
0
EOF