0
SECTION
2
HEADER
9
$MEASUREMENT
70
1
0
ENDSEC
0
SECTION
2
TABLES
0
TABLE
2
LTYPE
0
LTYPE
72
65
70
64
2
CONTINUOUS
3
______
73
0
40
0
0
ENDTAB
0
TABLE
2
LAYER
0
LAYER
2
DEFAULT_255_2_778
70
0
62
255
6
CONTINUOUS
0
ENDTAB
0
ENDSEC
0
SECTION
2
ENTITIES
0
LINE
8
DEFAULT_255_2_778
10
13.3614169
20
5.1593499
11
5.4239169
21
5.1593499
0
LINE
8
DEFAULT_255_2_778
10
5.4239169
20
5.1593499
11
2.7781169
21
-2.7781501
0
LINE
8
DEFAULT_255_2_778
10
2.7781169
20
-2.7781501
11
16.0073169
21
-2.7781501
0
LINE
8
DEFAULT_255_2_778
10
16.0073169
20
-2.7781501
11
13.3614169
21
5.1593499
0
LINE
8
DEFAULT_255_2_778
10
3.6578272
20
-0.1323
11
15.0777272
21
-0.1323
0
LINE
8
DEFAULT_255_2_778
10
5.424
20
-2.7780834
11
5.424
21
-0.1322834
0
LINE
8
DEFAULT_255_2_778
10
13.3615
20
-2.7780834
11
13.3615
21
-0.1322834
0
ARC
8
DEFAULT_255_2_778
10
7.7382021
20
2.1861148
40
1.6527511
50
153.3293916
51
180.1133265
0
ARC
8
DEFAULT_255_2_778
10
7.7350398
20
2.1865592
40
1.6497263
50
99.1870744
51
153.2938879
0
ARC
8
DEFAULT_255_2_778
10
7.7383471
20
2.1578578
40
1.6785881
50
89.9758624
51
99.1420994
0
ARC
8
DEFAULT_255_2_778
10
7.7423341
20
2.1834715
40
1.6529775
50
63.3312497
51
90.1136889
0
ARC
8
DEFAULT_255_2_778
10
7.7428981
20
2.1868608
40
1.6496962
50
9.1872228
51
63.2959193
0
ARC
8
DEFAULT_255_2_778
10
7.7141666
20
2.1835505
40
1.6785879
50
359.9759464
51
9.1421852
0
ARC
8
DEFAULT_255_2_778
10
7.739813
20
2.1795628
40
1.6529445
50
333.3307916
51
0.1137972
0
ARC
8
DEFAULT_255_2_778
10
7.7431466
20
2.1790504
40
1.6497359
50
279.1852252
51
333.2947299
0
ARC
8
DEFAULT_255_2_778
10
7.7397602
20
2.2080547
40
1.6789093
50
269.975907
51
279.1413077
0
ARC
8
DEFAULT_255_2_778
10
7.7357821
20
2.1818606
40
1.6527181
50
243.3289334
51
270.1134347
0
ARC
8
DEFAULT_255_2_778
10
7.7353892
20
2.178754
40
1.649766
50
189.1850768
51
243.2926984
0
ARC
8
DEFAULT_255_2_778
10
7.7643636
20
2.1821373
40
1.6789094
50
179.975823
51
189.1412219
0
LINE
8
DEFAULT_255_2_778
10
6.0854542
20
2.1828458
11
6.0854542
21
2.1828458
0
ARC
8
DEFAULT_255_2_778
10
11.0455021
20
2.1861148
40
1.6527511
50
153.3293916
51
180.1133265
0
ARC
8
DEFAULT_255_2_778
10
11.0423398
20
2.1865592
40
1.6497263
50
99.1870744
51
153.2938879
0
ARC
8
DEFAULT_255_2_778
10
11.0456471
20
2.1578578
40
1.6785881
50
89.9758624
51
99.1420994
0
ARC
8
DEFAULT_255_2_778
10
11.0496341
20
2.1834715
40
1.6529775
50
63.3312497
51
90.1136889
0
ARC
8
DEFAULT_255_2_778
10
11.0501981
20
2.1868608
40
1.6496962
50
9.1872228
51
63.2959193
0
ARC
8
DEFAULT_255_2_778
10
11.0214666
20
2.1835505
40
1.6785879
50
359.9759464
51
9.1421852
0
ARC
8
DEFAULT_255_2_778
10
11.047113
20
2.1795628
40
1.6529445
50
333.3307916
51
0.1137972
0
ARC
8
DEFAULT_255_2_778
10
11.0504466
20
2.1790504
40
1.6497359
50
279.1852252
51
333.2947299
0
ARC
8
DEFAULT_255_2_778
10
11.0470602
20
2.2080547
40
1.6789093
50
269.975907
51
279.1413077
0
ARC
8
DEFAULT_255_2_778
10
11.0430821
20
2.1818606
40
1.6527181
50
243.3289334
51
270.1134347
0
ARC
8
DEFAULT_255_2_778
10
11.0426892
20
2.178754
40
1.649766
50
189.1850768
51
243.2926984
0
ARC
8
DEFAULT_255_2_778
10
11.0716636
20
2.1821373
40
1.6789094
50
179.975823
51
189.1412219
0
LINE
8
DEFAULT_255_2_778
10
9.3927542
20
2.1828458
11
9.3927542
21
2.1828458
0
ENDSEC
0
EOF