0
SECTION
2
HEADER
9
$MEASUREMENT
70
1
0
ENDSEC
0
SECTION
2
TABLES
0
TABLE
2
LTYPE
0
LTYPE
72
65
70
64
2
CONTINUOUS
3
______
73
0
40
0
0
ENDTAB
0
TABLE
2
LAYER
0
LAYER
2
DEFAULT_255_2_778
70
0
62
255
6
CONTINUOUS
0
ENDTAB
0
ENDSEC
0
SECTION
2
ENTITIES
0
LINE
8
DEFAULT_255_2_778
10
2.7781169
20
-2.7781501
11
2.7781169
21
5.1593499
0
LINE
8
DEFAULT_255_2_778
10
2.7781169
20
5.1593499
11
13.3614169
21
5.1593499
0
LINE
8
DEFAULT_255_2_778
10
13.3614169
20
5.1593499
11
14.6843169
21
2.5135499
0
LINE
8
DEFAULT_255_2_778
10
14.6843169
20
2.5135499
11
16.0073169
21
2.5135499
0
LINE
8
DEFAULT_255_2_778
10
16.0073169
20
2.5135499
11
16.0073169
21
-0.1323501
0
LINE
8
DEFAULT_255_2_778
10
16.0073169
20
-0.1323501
11
14.6843169
21
-0.1323501
0
LINE
8
DEFAULT_255_2_778
10
14.6843169
20
-0.1323501
11
13.3614169
21
-2.7781501
0
LINE
8
DEFAULT_255_2_778
10
13.3614169
20
-2.7781501
11
2.7781169
21
-2.7781501
0
LINE
8
DEFAULT_255_2_778
10
16.0073169
20
1.1906
11
2.7781169
21
1.1906
0
LINE
8
DEFAULT_255_2_778
10
4.1010335
20
1.1906333
11
5.4239335
21
3.8364333
0
LINE
8
DEFAULT_255_2_778
10
5.4239335
20
3.8364333
11
6.7468335
21
1.1906333
0
LINE
8
DEFAULT_255_2_778
10
6.7468335
20
1.1906333
11
8.0697335
21
-1.4552667
0
LINE
8
DEFAULT_255_2_778
10
8.0697335
20
-1.4552667
11
10.7156335
21
3.8364333
0
LINE
8
DEFAULT_255_2_778
10
10.7156335
20
3.8364333
11
13.3614335
21
-1.4552667
0
LINE
8
DEFAULT_255_2_778
10
13.3614335
20
-1.4552667
11
14.6843335
21
1.1906333
0
ENDSEC
0
EOF