0
SECTION
2
HEADER
9
$MEASUREMENT
70
1
0
ENDSEC
0
SECTION
2
TABLES
0
TABLE
2
LTYPE
0
LTYPE
72
65
70
64
2
CONTINUOUS
3
______
73
0
40
0
0
ENDTAB
0
TABLE
2
LAYER
0
LAYER
2
DEFAULT_255_2_778
70
0
62
255
6
CONTINUOUS
0
ENDTAB
0
ENDSEC
0
SECTION
2
ENTITIES
0
LINE
8
DEFAULT_255_2_778
10
2.778167
20
42.2010827
11
23.944867
21
42.2010827
0
LINE
8
DEFAULT_255_2_778
10
23.944867
20
42.2010827
11
23.944867
21
-2.7781173
0
LINE
8
DEFAULT_255_2_778
10
23.944867
20
-2.7781173
11
2.778167
21
-2.7781173
0
LINE
8
DEFAULT_255_2_778
10
2.778167
20
-2.7781173
11
2.778167
21
42.2010827
0
LINE
8
DEFAULT_255_2_778
10
2.778167
20
36.9094
11
23.944867
21
36.9094
0
LINE
8
DEFAULT_255_2_778
10
2.778167
20
2.5136
11
23.944867
21
2.5136
0
ARC
8
DEFAULT_255_2_778
10
13.3582735
20
19.714189
40
1.0551101
50
142.5584386
51
180.1442103
0
ARC
8
DEFAULT_255_2_778
10
13.3584202
20
19.7148977
40
1.0547961
50
94.170882
51
142.5938538
0
ARC
8
DEFAULT_255_2_778
10
13.3613582
20
19.6867345
40
1.0830989
50
89.9942616
51
94.2175315
0
ARC
8
DEFAULT_255_2_778
10
13.364108
20
19.714574
40
1.0552626
50
52.5612485
51
90.1434088
0
ARC
8
DEFAULT_255_2_778
10
13.3649416
20
19.7145331
40
1.0547886
50
4.1734509
51
52.5985539
0
ARC
8
DEFAULT_255_2_778
10
13.3370626
20
19.7116472
40
1.082804
50
359.993973
51
4.2183941
0
ARC
8
DEFAULT_255_2_778
10
13.3647031
20
19.7089078
40
1.0551669
50
322.5561804
51
0.1425643
0
ARC
8
DEFAULT_255_2_778
10
13.3644446
20
19.7082264
40
1.0549579
50
274.1740066
51
322.5940958
0
ARC
8
DEFAULT_255_2_778
10
13.3615801
20
19.7359702
40
1.0828368
50
269.9940009
51
274.2183266
0
ARC
8
DEFAULT_255_2_778
10
13.3588268
20
19.7081444
40
1.0550144
50
232.5533702
51
270.1433658
0
ARC
8
DEFAULT_255_2_778
10
13.3582704
20
19.7085088
40
1.0549654
50
184.1714379
51
232.5893959
0
ARC
8
DEFAULT_255_2_778
10
13.3862982
20
19.7114254
40
1.0831316
50
179.9942895
51
184.2174639
0
LINE
8
DEFAULT_255_2_778
10
12.3031667
20
19.7115333
11
12.3031667
21
19.7115333
0
ENDSEC
0
EOF