0
SECTION
2
HEADER
9
$MEASUREMENT
70
1
0
ENDSEC
0
SECTION
2
TABLES
0
TABLE
2
LTYPE
0
LTYPE
72
65
70
64
2
CONTINUOUS
3
______
73
0
40
0
0
ENDTAB
0
TABLE
2
LAYER
0
LAYER
2
DEFAULT_255_2_778
70
0
62
255
6
CONTINUOUS
0
ENDTAB
0
ENDSEC
0
SECTION
2
ENTITIES
0
LINE
8
DEFAULT_255_2_778
10
2.7781169
20
-1.7695
11
16.0073169
21
-1.7695
0
LINE
8
DEFAULT_255_2_778
10
2.7781169
20
-1.7695
11
16.0073169
21
-1.7695
0
LINE
8
DEFAULT_255_2_778
10
5.4239084
20
0.8764
11
12.0385084
21
0.8764
0
LINE
8
DEFAULT_255_2_778
10
13.3614479
20
0.8763312
11
11.0463479
21
0.1817312
0
LINE
8
DEFAULT_255_2_778
10
11.0463479
20
0.1817312
11
11.0463479
21
1.5708312
0
LINE
8
DEFAULT_255_2_778
10
11.0463479
20
1.5708312
11
13.3614479
21
0.8763312
0
LINE
8
DEFAULT_255_2_778
10
5.4239501
20
-0.4465834
11
13.3614501
21
-0.4465834
0
LINE
8
DEFAULT_255_2_778
10
13.3614501
20
-0.4465834
11
13.3614501
21
-3.0923834
0
LINE
8
DEFAULT_255_2_778
10
13.3614501
20
-3.0923834
11
5.4239501
21
-3.0923834
0
LINE
8
DEFAULT_255_2_778
10
5.4239501
20
-3.0923834
11
5.4239501
21
-0.4465834
0
LINE
8
DEFAULT_255_2_778
10
7.4083376
20
-0.4465834
11
13.3614376
21
-3.0923834
0
LINE
8
DEFAULT_255_2_778
10
13.3614376
20
-0.4465834
11
7.4083376
21
-3.0923834
0
LINE
8
DEFAULT_255_2_778
10
7.276
20
-0.4465834
11
7.276
21
-3.0923834
0
LINE
8
DEFAULT_255_2_778
10
5.4239584
20
-0.4465834
11
7.2760584
21
-0.4465834
0
LINE
8
DEFAULT_255_2_778
10
7.2760584
20
-0.4465834
11
7.2760584
21
-3.0923834
0
LINE
8
DEFAULT_255_2_778
10
7.2760584
20
-3.0923834
11
5.4239584
21
-3.0923834
0
LINE
8
DEFAULT_255_2_778
10
5.4239584
20
-3.0923834
11
5.4239584
21
-0.4465834
0
ENDSEC
0
EOF