0
SECTION
2
HEADER
9
$MEASUREMENT
70
1
0
ENDSEC
0
SECTION
2
TABLES
0
TABLE
2
LTYPE
0
LTYPE
72
65
70
64
2
CONTINUOUS
3
______
73
0
40
0
0
ENDTAB
0
TABLE
2
LAYER
0
LAYER
2
DEFAULT_255_2_778
70
0
62
255
6
CONTINUOUS
0
ENDTAB
0
ENDSEC
0
SECTION
2
ENTITIES
0
LINE
8
DEFAULT_255_2_778
10
8.0698
20
-3.4394834
11
8.0698
21
-0.7936834
0
LINE
8
DEFAULT_255_2_778
10
2.7780834
20
1.8521
11
5.4238834
21
1.8521
0
LINE
8
DEFAULT_255_2_778
10
10.7155834
20
1.8521
11
13.3613834
21
1.8521
0
LINE
8
DEFAULT_255_2_778
10
5.4239834
20
0.5292166
11
5.4239834
21
3.1750166
0
LINE
8
DEFAULT_255_2_778
10
5.4239834
20
3.1750166
11
8.0697834
21
1.8521166
0
LINE
8
DEFAULT_255_2_778
10
8.0697834
20
1.8521166
11
5.4239834
21
0.5292166
0
LINE
8
DEFAULT_255_2_778
10
9.3926834
20
-0.7936834
11
6.7468834
21
-0.7936834
0
LINE
8
DEFAULT_255_2_778
10
6.7468834
20
-0.7936834
11
8.0697834
21
1.8521166
0
LINE
8
DEFAULT_255_2_778
10
8.0697834
20
1.8521166
11
9.3926834
21
-0.7936834
0
LINE
8
DEFAULT_255_2_778
10
10.7155834
20
0.5292166
11
10.7155834
21
3.1750166
0
LINE
8
DEFAULT_255_2_778
10
10.7155834
20
3.1750166
11
8.0697834
21
1.8521166
0
LINE
8
DEFAULT_255_2_778
10
8.0697834
20
1.8521166
11
10.7155834
21
0.5292166
0
ENDSEC
0
EOF