0
SECTION
2
HEADER
9
$MEASUREMENT
70
1
0
ENDSEC
0
SECTION
2
TABLES
0
TABLE
2
LTYPE
0
LTYPE
72
65
70
64
2
CONTINUOUS
3
______
73
0
40
0
0
ENDTAB
0
TABLE
2
LAYER
0
LAYER
2
DEFAULT_255_2_778
70
0
62
255
6
CONTINUOUS
0
ENDTAB
0
ENDSEC
0
SECTION
2
ENTITIES
0
LINE
8
DEFAULT_255_2_778
10
12.0385667
20
-3.9685834
11
12.0385667
21
-1.3227834
0
LINE
8
DEFAULT_255_2_778
10
6.7468667
20
-1.3227834
11
6.7468667
21
-3.9685834
0
LINE
8
DEFAULT_255_2_778
10
12.0385169
20
-2.6457
11
16.0073169
21
-2.6457
0
LINE
8
DEFAULT_255_2_778
10
6.7468169
20
-2.6457
11
2.7781169
21
-2.6457
0
ARC
8
DEFAULT_255_2_778
10
6.7463224
20
-1.3222224
40
0.2640063
50
89.8710178
51
180.1289822
0
ARC
8
DEFAULT_255_2_778
10
6.747511
20
-1.3222224
40
0.2640063
50
359.8710178
51
90.1289822
0
ARC
8
DEFAULT_255_2_778
10
6.747511
20
-1.323411
40
0.2640063
50
269.8710178
51
0.1289822
0
ARC
8
DEFAULT_255_2_778
10
6.7463224
20
-1.323411
40
0.2640063
50
179.8710178
51
270.1289822
0
LINE
8
DEFAULT_255_2_778
10
6.4823167
20
-1.3228167
11
6.4823167
21
-1.3228167
0
LINE
8
DEFAULT_255_2_778
10
6.7468917
20
-1.3227959
11
10.5208917
21
-3.2097959
0
LINE
8
DEFAULT_255_2_778
10
12.038499
20
-3.9686445
11
10.201499
21
-3.6491445
0
LINE
8
DEFAULT_255_2_778
10
10.201499
20
-3.6491445
11
10.680699
21
-2.6907445
0
LINE
8
DEFAULT_255_2_778
10
10.680699
20
-2.6907445
11
12.038499
21
-3.9686445
0
ENDSEC
0
EOF