0
SECTION
2
HEADER
9
$MEASUREMENT
70
1
0
ENDSEC
0
SECTION
2
TABLES
0
TABLE
2
LTYPE
0
LTYPE
72
65
70
64
2
CONTINUOUS
3
______
73
0
40
0
0
ENDTAB
0
TABLE
2
LAYER
0
LAYER
2
DEFAULT_255_2_778
70
0
62
255
6
CONTINUOUS
0
ENDTAB
0
ENDSEC
0
SECTION
2
ENTITIES
0
LINE
8
DEFAULT_255_2_778
10
9.3927
20
-2.1167501
11
9.3927
21
5.8207499
0
LINE
8
DEFAULT_255_2_778
10
2.7781169
20
-2.1167
11
16.0073169
21
-2.1167
0
LINE
8
DEFAULT_255_2_778
10
12.0385667
20
-3.4395752
11
12.0385667
21
-0.7937752
0
LINE
8
DEFAULT_255_2_778
10
12.0385667
20
-0.7937752
11
6.7468667
21
-3.4395752
0
LINE
8
DEFAULT_255_2_778
10
6.7468667
20
-3.4395752
11
6.7468667
21
-0.7937752
0
LINE
8
DEFAULT_255_2_778
10
6.7468667
20
-0.7937752
11
12.0385667
21
-3.4395752
0
LINE
8
DEFAULT_255_2_778
10
8.0697667
20
8.4666248
11
10.7155667
21
8.4666248
0
LINE
8
DEFAULT_255_2_778
10
10.7155667
20
8.4666248
11
10.7155667
21
5.8208248
0
LINE
8
DEFAULT_255_2_778
10
10.7155667
20
5.8208248
11
8.0697667
21
5.8208248
0
LINE
8
DEFAULT_255_2_778
10
8.0697667
20
5.8208248
11
8.0697667
21
8.4666248
0
ARC
8
DEFAULT_255_2_778
10
9.7602606
20
8.4746589
40
1.4101869
50
245.4408554
51
254.4817133
0
ARC
8
DEFAULT_255_2_778
10
9.4376828
20
7.7827056
40
0.646785
50
229.2355739
51
245.9543854
0
ARC
8
DEFAULT_255_2_778
10
9.2970942
20
7.6057067
40
0.4210268
50
227.2814883
51
227.9985028
0
ARC
8
DEFAULT_255_2_778
10
9.239688
20
7.5544031
40
0.3444691
50
179.0057827
51
228.5077517
0
ARC
8
DEFAULT_255_2_778
10
9.2590704
20
7.5658846
40
0.3638411
50
127.5411094
51
180.8668376
0
ARC
8
DEFAULT_255_2_778
10
9.3665134
20
7.4373145
40
0.531299
50
93.4564695
51
128.2800216
0
ARC
8
DEFAULT_255_2_778
10
9.4056979
20
7.1599834
40
0.8107974
50
89.9241762
51
95.0390788
0
ARC
8
DEFAULT_255_2_778
10
9.4177939
20
7.3554016
40
0.6154773
50
64.4476831
51
91.0262106
0
ARC
8
DEFAULT_255_2_778
10
9.4881648
20
7.4989906
40
0.4555817
50
32.7397622
51
64.6430098
0
ARC
8
DEFAULT_255_2_778
10
9.5151889
20
7.5175944
40
0.4227906
50
359.6321713
51
32.5997635
0
ARC
8
DEFAULT_255_2_778
10
9.4649108
20
7.5290461
40
0.2740264
50
357.036745
51
47.0073035
0
ARC
8
DEFAULT_255_2_778
10
9.4431467
20
7.4819184
40
0.323745
50
49.8786352
51
87.1855925
0
ARC
8
DEFAULT_255_2_778
10
9.4077581
20
7.2366524
40
0.5709287
50
84.8463458
51
90.0990726
0
ARC
8
DEFAULT_255_2_778
10
9.394098
20
7.3852071
40
0.4225632
50
88.2814155
51
112.8639148
0
ARC
8
DEFAULT_255_2_778
10
9.3364186
20
7.5404386
40
0.257217
50
114.4605285
51
128.0535245
0
ARC
8
DEFAULT_255_2_778
10
9.3106246
20
7.5735016
40
0.2152824
50
128.0718375
51
182.6414496
0
ARC
8
DEFAULT_255_2_778
10
9.2891908
20
7.5633632
40
0.1936201
50
179.9357859
51
233.370928
0
ARC
8
DEFAULT_255_2_778
10
9.4623211
20
7.7853722
40
0.4751249
50
232.5892413
51
248.4080291
0
ARC
8
DEFAULT_255_2_778
10
9.7742648
20
8.5239453
40
1.276795
50
247.58844
51
254.7892053
0
ARC
8
DEFAULT_255_2_778
10
9.0131285
20
5.7305516
40
1.6184389
50
67.4720256
51
74.733764
0
ARC
8
DEFAULT_255_2_778
10
9.3216266
20
6.4791192
40
0.8087983
50
59.4549236
51
67.3413511
0
ARC
8
DEFAULT_255_2_778
10
9.5144208
20
6.7870271
40
0.4457402
50
32.6154538
51
60.6833915
0
ARC
8
DEFAULT_255_2_778
10
9.5623153
20
6.8370856
40
0.3787699
50
358.592247
51
30.1415194
0
ARC
8
DEFAULT_255_2_778
10
9.5896355
20
6.8177382
40
0.3514789
50
306.4123925
51
1.6371981
0
ARC
8
DEFAULT_255_2_778
10
9.4779477
20
6.9679898
40
0.5386937
50
276.2992216
51
306.4862194
0
ARC
8
DEFAULT_255_2_778
10
9.4201448
20
7.3077765
40
0.8830016
50
269.8005416
51
277.6082686
0
ARC
8
DEFAULT_255_2_778
10
9.411533
20
7.1307871
40
0.7060286
50
246.2844394
51
270.4494095
0
ARC
8
DEFAULT_255_2_778
10
9.3135255
20
6.9342392
40
0.4867774
50
216.151223
51
247.5416552
0
ARC
8
DEFAULT_255_2_778
10
9.2454054
20
6.8765101
40
0.3977695
50
179.2408595
51
215.2251658
0
ARC
8
DEFAULT_255_2_778
10
9.3057359
20
6.8714945
40
0.2587696
50
177.7219758
51
232.4340701
0
ARC
8
DEFAULT_255_2_778
10
9.3829803
20
6.9838412
40
0.3949821
50
233.4882649
51
267.5693303
0
ARC
8
DEFAULT_255_2_778
10
9.4164918
20
7.2411685
40
0.6538888
50
265.5914554
51
270.068261
0
ARC
8
DEFAULT_255_2_778
10
9.4296501
20
7.0767771
40
0.4896534
50
268.5513123
51
289.1395608
0
ARC
8
DEFAULT_255_2_778
10
9.4979966
20
6.8635752
40
0.2658815
50
290.2890929
51
307.0169421
0
ARC
8
DEFAULT_255_2_778
10
9.5335992
20
6.8181925
40
0.2082136
50
306.7130256
51
2.1159638
0
ARC
8
DEFAULT_255_2_778
10
9.5377578
20
6.8365256
40
0.2041908
50
357.0115551
51
51.7500689
0
ARC
8
DEFAULT_255_2_778
10
9.3766629
20
6.604044
40
0.486807
50
53.8004453
51
68.2112731
0
ARC
8
DEFAULT_255_2_778
10
9.0053143
20
5.7319392
40
1.4346021
50
67.3682746
51
73.6775825
0
ARC
8
DEFAULT_255_2_778
10
8.7424283
20
4.8940155
40
2.3126969
50
73.2614038
51
73.9155275
0
LINE
8
DEFAULT_255_2_778
10
9.9379708
20
7.5148802
11
9.7385708
21
7.5148802
0
LINE
8
DEFAULT_255_2_778
10
8.8476708
20
6.8817802
11
9.0471708
21
6.8817802
0
LINE
8
DEFAULT_255_2_778
10
9.3831708
20
7.1161802
11
9.3829708
21
7.1158802
0
LINE
8
DEFAULT_255_2_778
10
9.3927417
20
3.175
11
10.7156417
21
3.175
0
LINE
8
DEFAULT_255_2_778
10
10.7156251
20
3.1749749
11
12.7000251
21
5.1593749
0
LINE
8
DEFAULT_255_2_778
10
12.7000251
20
5.1593749
11
14.6843251
21
3.1749749
0
LINE
8
DEFAULT_255_2_778
10
14.6843251
20
3.1749749
11
12.7000251
21
1.1906749
0
LINE
8
DEFAULT_255_2_778
10
12.7000251
20
1.1906749
11
10.7156251
21
3.1749749
0
ARC
8
DEFAULT_255_2_778
10
12.7333612
20
3.1940027
40
0.7869746
50
74.0091615
51
90.9241886
0
ARC
8
DEFAULT_255_2_778
10
12.8249575
20
3.5185986
40
0.4497074
50
50.3742087
51
73.8347742
0
ARC
8
DEFAULT_255_2_778
10
12.8517612
20
3.567656
40
0.3949708
50
2.5167084
51
48.8301942
0
ARC
8
DEFAULT_255_2_778
10
12.599798
20
3.5290395
40
0.6489703
50
359.9236702
51
4.9466858
0
ARC
8
DEFAULT_255_2_778
10
12.8431
20
3.5195924
40
0.4057585
50
324.3624616
51
1.212003
0
ARC
8
DEFAULT_255_2_778
10
12.8097071
20
3.5537937
40
0.4529019
50
289.5777105
51
323.3073953
0
ARC
8
DEFAULT_255_2_778
10
12.7404731
20
3.614358
40
0.3674387
50
267.8623849
51
300.99674
0
ARC
8
DEFAULT_255_2_778
10
12.7791005
20
3.5330797
40
0.2780121
50
302.7995399
51
311.1297909
0
ARC
8
DEFAULT_255_2_778
10
12.7910168
20
3.5175528
40
0.2584817
50
311.4040894
51
2.4217621
0
ARC
8
DEFAULT_255_2_778
10
12.7642383
20
3.5428074
40
0.2853896
50
357.1213564
51
38.2671304
0
ARC
8
DEFAULT_255_2_778
10
12.809944
20
3.5680456
40
0.2340278
50
40.3465449
51
48.1879849
0
ARC
8
DEFAULT_255_2_778
10
12.765078
20
3.5012478
40
0.3139223
50
50.2130664
51
86.0920689
0
ARC
8
DEFAULT_255_2_778
10
12.7233869
20
3.2375401
40
0.5803393
50
83.759309
51
89.7748164
0
LINE
8
DEFAULT_255_2_778
10
13.1019677
20
2.476175
11
12.7754677
21
3.084975
0
LINE
8
DEFAULT_255_2_778
10
12.7754677
20
3.084975
11
12.4219677
21
3.084975
0
LINE
8
DEFAULT_255_2_778
10
12.4219677
20
3.084975
11
12.4219677
21
2.476175
0
LINE
8
DEFAULT_255_2_778
10
12.4219677
20
2.476175
11
12.2224677
21
2.476175
0
LINE
8
DEFAULT_255_2_778
10
12.2224677
20
2.476175
11
12.2224677
21
3.980875
0
LINE
8
DEFAULT_255_2_778
10
12.2224677
20
3.980875
11
12.7206677
21
3.980875
0
LINE
8
DEFAULT_255_2_778
10
12.9614677
20
3.127075
11
13.3149677
21
2.488375
0
LINE
8
DEFAULT_255_2_778
10
13.3149677
20
2.488375
11
13.3149677
21
2.475975
0
LINE
8
DEFAULT_255_2_778
10
13.3149677
20
2.475975
11
13.1019677
21
2.475975
0
LINE
8
DEFAULT_255_2_778
10
13.1019677
20
2.475975
11
13.1019677
21
2.476175
0
LINE
8
DEFAULT_255_2_778
10
12.4219677
20
3.817675
11
12.4219677
21
3.247175
0
LINE
8
DEFAULT_255_2_778
10
12.4219677
20
3.247175
11
12.7267677
21
3.247175
0
LINE
8
DEFAULT_255_2_778
10
12.7256677
20
3.817875
11
12.4219677
21
3.817875
0
LINE
8
DEFAULT_255_2_778
10
12.4219677
20
3.817875
11
12.4219677
21
3.817675
0
ENDSEC
0
EOF