0
SECTION
2
HEADER
9
$MEASUREMENT
70
1
0
ENDSEC
0
SECTION
2
TABLES
0
TABLE
2
LTYPE
0
LTYPE
72
65
70
64
2
CONTINUOUS
3
______
73
0
40
0
0
ENDTAB
0
TABLE
2
LAYER
0
LAYER
2
DEFAULT_255_2_778
70
0
62
255
6
CONTINUOUS
0
ENDTAB
0
ENDSEC
0
SECTION
2
ENTITIES
0
LINE
8
DEFAULT_255_2_778
10
2.7781169
20
-2.1166
11
16.0073169
21
-2.1166
0
LINE
8
DEFAULT_255_2_778
10
6.7468667
20
-0.7936834
11
12.0385667
21
-0.7936834
0
LINE
8
DEFAULT_255_2_778
10
12.0385667
20
-0.7936834
11
12.0385667
21
-3.4394834
0
LINE
8
DEFAULT_255_2_778
10
12.0385667
20
-3.4394834
11
6.7468667
21
-3.4394834
0
LINE
8
DEFAULT_255_2_778
10
6.7468667
20
-3.4394834
11
6.7468667
21
-0.7936834
0
LINE
8
DEFAULT_255_2_778
10
6.7468667
20
-3.4394834
11
9.3926667
21
-0.7936834
0
LINE
8
DEFAULT_255_2_778
10
9.3926667
20
-0.7936834
11
12.0385667
21
-3.4394834
0
LINE
8
DEFAULT_255_2_778
10
9.3927
20
-0.7937656
11
9.3927
21
0.9755344
0
LINE
8
DEFAULT_255_2_778
10
9.3926688
20
3.1750521
11
10.0872688
21
0.8599521
0
LINE
8
DEFAULT_255_2_778
10
10.0872688
20
0.8599521
11
8.6981688
21
0.8599521
0
LINE
8
DEFAULT_255_2_778
10
8.6981688
20
0.8599521
11
9.3926688
21
3.1750521
0
ENDSEC
0
EOF