0
SECTION
2
HEADER
9
$MEASUREMENT
70
1
0
ENDSEC
0
SECTION
2
TABLES
0
TABLE
2
LTYPE
0
LTYPE
72
65
70
64
2
CONTINUOUS
3
______
73
0
40
0
0
ENDTAB
0
TABLE
2
LAYER
0
LAYER
2
DEFAULT_255_2_778
70
0
62
255
6
CONTINUOUS
0
ENDTAB
0
ENDSEC
0
SECTION
2
ENTITIES
0
LINE
8
DEFAULT_255_2_778
10
9.1117063
20
1.852
11
7.4083063
21
1.852
0
LINE
8
DEFAULT_255_2_778
10
10.0542063
20
1.8519562
11
9.0620063
21
1.5543562
0
LINE
8
DEFAULT_255_2_778
10
9.0620063
20
1.5543562
11
9.0620063
21
2.1496562
0
LINE
8
DEFAULT_255_2_778
10
9.0620063
20
2.1496562
11
10.0542063
21
1.8519562
0
LINE
8
DEFAULT_255_2_778
10
7.4080834
20
3.1749166
11
7.4080834
21
0.5291166
0
LINE
8
DEFAULT_255_2_778
10
7.4080834
20
0.5291166
11
4.7622834
21
1.8520166
0
LINE
8
DEFAULT_255_2_778
10
4.7622834
20
1.8520166
11
7.4080834
21
3.1749166
0
LINE
8
DEFAULT_255_2_778
10
4.762
20
1.8520749
11
4.762
21
5.8207749
0
LINE
8
DEFAULT_255_2_778
10
4.762
20
-3.4395834
11
4.762
21
-0.7937834
0
LINE
8
DEFAULT_255_2_778
10
4.1007906
20
3.5718385
11
5.5207906
21
4.2817385
0
LINE
8
DEFAULT_255_2_778
10
4.1007917
20
4.2333042
11
5.2839917
21
4.8249042
0
LINE
8
DEFAULT_255_2_778
10
4.2333604
20
5.0270698
11
5.1800604
21
5.5003698
0
LINE
8
DEFAULT_255_2_778
10
4.7624834
20
1.8520166
11
3.4395834
21
-0.7937834
0
LINE
8
DEFAULT_255_2_778
10
3.4395834
20
-0.7937834
11
6.0853834
21
-0.7937834
0
LINE
8
DEFAULT_255_2_778
10
6.0853834
20
-0.7937834
11
4.7624834
21
1.8520166
0
LINE
8
DEFAULT_255_2_778
10
3.4395834
20
8.4666166
11
6.0853834
21
8.4666166
0
LINE
8
DEFAULT_255_2_778
10
6.0853834
20
8.4666166
11
6.0853834
21
5.8208166
0
LINE
8
DEFAULT_255_2_778
10
6.0853834
20
5.8208166
11
3.4395834
21
5.8208166
0
LINE
8
DEFAULT_255_2_778
10
3.4395834
20
5.8208166
11
3.4395834
21
8.4666166
0
ARC
8
DEFAULT_255_2_778
10
4.8378559
20
7.2617743
40
0.6882221
50
70.6313466
51
91.0764067
0
ARC
8
DEFAULT_255_2_778
10
4.9117445
20
7.4876942
40
0.4506138
50
48.2112649
51
69.9678105
0
ARC
8
DEFAULT_255_2_778
10
4.9248804
20
7.5071059
40
0.4273982
50
357.6760359
51
47.7901352
0
ARC
8
DEFAULT_255_2_778
10
4.8711754
20
7.476132
40
0.4809452
50
332.6635747
51
1.6255259
0
ARC
8
DEFAULT_255_2_778
10
4.9736469
20
7.4334456
40
0.3704279
50
310.6438742
51
331.2501854
0
ARC
8
DEFAULT_255_2_778
10
4.906048
20
7.5279594
40
0.4862817
50
278.6477666
51
309.433738
0
ARC
8
DEFAULT_255_2_778
10
4.8285749
20
7.9095576
40
0.8754016
50
269.623801
51
279.9055348
0
ARC
8
DEFAULT_255_2_778
10
4.8376875
20
7.6260318
40
0.4298462
50
268.2988653
51
292.9264051
0
ARC
8
DEFAULT_255_2_778
10
4.8976041
20
7.4670004
40
0.260125
50
294.4170619
51
311.1653224
0
ARC
8
DEFAULT_255_2_778
10
4.8853605
20
7.4666635
40
0.2680965
50
313.1829758
51
1.6849611
0
ARC
8
DEFAULT_255_2_778
10
4.6951732
20
7.4876102
40
0.458354
50
358.3667712
51
0.0080915
0
ARC
8
DEFAULT_255_2_778
10
4.8715836
20
7.5005984
40
0.2822395
50
357.3755744
51
45.665074
0
ARC
8
DEFAULT_255_2_778
10
4.852786
20
7.4621563
40
0.3231514
50
48.0451703
51
89.2860571
0
ARC
8
DEFAULT_255_2_778
10
4.8260929
20
7.2562951
40
0.5298787
50
86.6764125
51
88.8933037
0
LINE
8
DEFAULT_255_2_778
10
4.8228271
20
7.034175
11
4.4682271
21
7.034175
0
LINE
8
DEFAULT_255_2_778
10
4.4682271
20
7.034175
11
4.4682271
21
6.444975
0
LINE
8
DEFAULT_255_2_778
10
4.4682271
20
6.444975
11
4.2698271
21
6.444975
0
LINE
8
DEFAULT_255_2_778
10
4.2698271
20
6.444975
11
4.2698271
21
7.949875
0
LINE
8
DEFAULT_255_2_778
10
4.2698271
20
7.949875
11
4.8249271
21
7.949875
0
LINE
8
DEFAULT_255_2_778
10
4.8228271
20
7.034175
11
4.8228271
21
7.034175
0
LINE
8
DEFAULT_255_2_778
10
4.4682271
20
7.786675
11
4.4682271
21
7.196375
0
LINE
8
DEFAULT_255_2_778
10
4.4682271
20
7.196375
11
4.8249271
21
7.196375
0
LINE
8
DEFAULT_255_2_778
10
4.8363271
20
7.786075
11
4.4682271
21
7.786075
0
LINE
8
DEFAULT_255_2_778
10
4.4682271
20
7.786075
11
4.4682271
21
7.786675
0
ENDSEC
0
EOF