0
SECTION
2
HEADER
9
$MEASUREMENT
70
1
0
ENDSEC
0
SECTION
2
TABLES
0
TABLE
2
LTYPE
0
LTYPE
72
65
70
64
2
CONTINUOUS
3
______
73
0
40
0
0
ENDTAB
0
TABLE
2
LAYER
0
LAYER
2
DEFAULT_255_2_778
70
0
62
255
6
CONTINUOUS
0
ENDTAB
0
ENDSEC
0
SECTION
2
ENTITIES
0
LINE
8
DEFAULT_255_2_778
10
2.7781169
20
-2.1167
11
16.0073169
21
-2.1167
0
LINE
8
DEFAULT_255_2_778
10
12.0385667
20
-3.4395834
11
12.0385667
21
-0.7937834
0
LINE
8
DEFAULT_255_2_778
10
12.0385667
20
-0.7937834
11
6.7468667
21
-3.4395834
0
LINE
8
DEFAULT_255_2_778
10
6.7468667
20
-3.4395834
11
6.7468667
21
-0.7937834
0
LINE
8
DEFAULT_255_2_778
10
6.7468667
20
-0.7937834
11
12.0385667
21
-3.4395834
0
LINE
8
DEFAULT_255_2_778
10
9.3927
20
3.1750333
11
9.3927
21
-2.1166667
0
LINE
8
DEFAULT_255_2_778
10
9.3926834
20
3.1750499
11
9.3926834
21
5.8208499
0
LINE
8
DEFAULT_255_2_778
10
9.3926834
20
5.8208499
11
12.0384834
21
5.8208499
0
LINE
8
DEFAULT_255_2_778
10
12.0384834
20
5.8208499
11
12.0384834
21
3.1750499
0
LINE
8
DEFAULT_255_2_778
10
12.0384834
20
3.1750499
11
9.3926834
21
-2.1166501
0
ARC
8
DEFAULT_255_2_778
10
10.3839191
20
0.836464
40
2.7715021
50
145.859455
51
158.5036583
0
ARC
8
DEFAULT_255_2_778
10
9.839721
20
1.2107479
40
2.1110363
50
130.2977852
51
145.9778861
0
ARC
8
DEFAULT_255_2_778
10
9.4493364
20
1.6883745
40
1.4943102
50
102.3150771
51
130.7259308
0
ARC
8
DEFAULT_255_2_778
10
9.3925972
20
1.8743771
40
1.3005811
50
89.9954689
51
101.620699
0
ARC
8
DEFAULT_255_2_778
10
9.3730802
20
1.759799
40
1.4152953
50
49.9008976
51
89.2056974
0
ARC
8
DEFAULT_255_2_778
10
8.9750557
20
1.2375758
40
2.0713782
50
34.915481
51
50.783549
0
ARC
8
DEFAULT_255_2_778
10
8.439387
20
0.8568106
40
2.7285685
50
22.280162
51
35.0336395
0
ARC
8
DEFAULT_255_2_778
10
8.1301908
20
0.7162825
40
3.0679863
50
21.7280998
51
22.5193776
0
LINE
8
DEFAULT_255_2_778
10
10.9802
20
1.8520583
11
7.8052
21
1.8520583
0
LINE
8
DEFAULT_255_2_778
10
10.9802
20
1.8520583
11
10.9802
21
1.8520583
0
ENDSEC
0
EOF