0
SECTION
2
HEADER
9
$MEASUREMENT
70
1
0
ENDSEC
0
SECTION
2
TABLES
0
TABLE
2
LTYPE
0
LTYPE
72
65
70
64
2
CONTINUOUS
3
______
73
0
40
0
0
ENDTAB
0
TABLE
2
LAYER
0
LAYER
2
DEFAULT_255_2_778
70
0
62
255
6
CONTINUOUS
0
ENDTAB
0
ENDSEC
0
SECTION
2
ENTITIES
0
LINE
8
DEFAULT_255_2_778
10
4.8948251
20
11.3113165
11
8.5990251
21
11.3113165
0
LINE
8
DEFAULT_255_2_778
10
8.5990251
20
11.3113165
11
8.5990251
21
2.3155165
0
LINE
8
DEFAULT_255_2_778
10
8.5990251
20
2.3155165
11
12.0385251
21
2.3155165
0
LINE
8
DEFAULT_255_2_778
10
4.8948
20
10.6498583
11
4.8948
21
11.9727583
0
LINE
8
DEFAULT_255_2_778
10
4.8947959
20
11.3113457
11
4.2332959
21
11.3113457
0
LINE
8
DEFAULT_255_2_778
10
12.0384959
20
1.6540457
11
12.0384959
21
2.9769457
0
LINE
8
DEFAULT_255_2_778
10
12.7000708
20
2.3155
11
12.0385708
21
2.3155
0
ARC
8
DEFAULT_255_2_778
10
7.0248148
20
-0.7523834
40
0.792081
50
72.2270494
51
90.9238395
0
ARC
8
DEFAULT_255_2_778
10
7.1064834
20
-0.4857314
40
0.5132391
50
48.3540817
51
71.8225301
0
ARC
8
DEFAULT_255_2_778
10
7.1241797
20
-0.4584903
40
0.4811479
50
357.711241
51
47.7731294
0
ARC
8
DEFAULT_255_2_778
10
7.0508841
20
-0.4912958
40
0.5542264
50
335.0707456
51
1.4051241
0
ARC
8
DEFAULT_255_2_778
10
7.1794861
20
-0.5414376
40
0.4165633
50
310.6668988
51
333.8691259
0
ARC
8
DEFAULT_255_2_778
10
7.1080279
20
-0.4431136
40
0.5378001
50
279.9326382
51
309.6151059
0
ARC
8
DEFAULT_255_2_778
10
7.0173295
20
-0.0245104
40
0.9659257
50
269.5441065
51
280.9490298
0
ARC
8
DEFAULT_255_2_778
10
7.0247931
20
-0.3116135
40
0.4966555
50
268.5290423
51
291.0300481
0
ARC
8
DEFAULT_255_2_778
10
7.0915268
20
-0.501571
40
0.2954614
50
292.1701531
51
311.251514
0
ARC
8
DEFAULT_255_2_778
10
7.0830996
20
-0.5058174
40
0.2979654
50
313.0085038
51
0.2487468
0
ARC
8
DEFAULT_255_2_778
10
6.8779933
20
-0.4803255
40
0.5036505
50
357.2461134
51
0.0250414
0
ARC
8
DEFAULT_255_2_778
10
7.0634567
20
-0.4657373
40
0.3185113
50
357.4145164
51
45.5908375
0
ARC
8
DEFAULT_255_2_778
10
7.0456267
20
-0.5044291
40
0.3589148
50
47.8804024
51
87.6582273
0
ARC
8
DEFAULT_255_2_778
10
7.0128626
20
-0.7277248
40
0.5838404
50
85.3403225
51
88.8339404
0
ARC
8
DEFAULT_255_2_778
10
9.1745148
20
-0.7523834
40
0.792081
50
72.2270494
51
90.9238395
0
ARC
8
DEFAULT_255_2_778
10
9.2561834
20
-0.4857314
40
0.5132391
50
48.3540817
51
71.8225301
0
ARC
8
DEFAULT_255_2_778
10
9.2746139
20
-0.4585662
40
0.4807111
50
357.7182106
51
47.8440068
0
ARC
8
DEFAULT_255_2_778
10
9.2008841
20
-0.4912958
40
0.5542264
50
335.0707456
51
1.4051241
0
ARC
8
DEFAULT_255_2_778
10
9.3294861
20
-0.5414376
40
0.4165633
50
310.6668988
51
333.8691259
0
ARC
8
DEFAULT_255_2_778
10
9.2580279
20
-0.4431136
40
0.5378001
50
279.9326382
51
309.6151059
0
ARC
8
DEFAULT_255_2_778
10
9.1673295
20
-0.0245104
40
0.9659257
50
269.5441065
51
280.9490298
0
ARC
8
DEFAULT_255_2_778
10
9.1744955
20
-0.3114692
40
0.4967998
50
268.5291949
51
291.0434722
0
ARC
8
DEFAULT_255_2_778
10
9.2411607
20
-0.5011648
40
0.2958762
50
292.1852802
51
311.223833
0
ARC
8
DEFAULT_255_2_778
10
9.2326571
20
-0.5058478
40
0.2981086
50
313.0465705
51
0.2544731
0
ARC
8
DEFAULT_255_2_778
10
9.0273445
20
-0.4803295
40
0.5039994
50
357.2484832
51
0.0254858
0
ARC
8
DEFAULT_255_2_778
10
9.2129826
20
-0.4657137
40
0.3186863
50
357.4116828
51
45.5526585
0
ARC
8
DEFAULT_255_2_778
10
9.1952702
20
-0.5048282
40
0.3593158
50
47.9045737
51
87.6516325
0
ARC
8
DEFAULT_255_2_778
10
9.162561
20
-0.7277868
40
0.5839024
50
85.3405427
51
88.8339068
0
LINE
8
DEFAULT_255_2_778
10
7.1437438
20
7.4748947
11
7.1437438
21
7.3031947
0
LINE
8
DEFAULT_255_2_778
10
7.1437438
20
7.3031947
11
6.5939438
21
7.3031947
0
LINE
8
DEFAULT_255_2_778
10
6.5939438
20
7.3031947
11
6.5939438
21
5.8934947
0
LINE
8
DEFAULT_255_2_778
10
6.5939438
20
5.8934947
11
6.3695438
21
5.8934947
0
LINE
8
DEFAULT_255_2_778
10
6.3695438
20
5.8934947
11
6.3695438
21
7.3031947
0
LINE
8
DEFAULT_255_2_778
10
6.3695438
20
7.3031947
11
5.8208438
21
7.3031947
0
LINE
8
DEFAULT_255_2_778
10
5.8208438
20
7.3031947
11
5.8208438
21
7.4748947
0
LINE
8
DEFAULT_255_2_778
10
5.8208438
20
7.4748947
11
7.1437438
21
7.4748947
0
LINE
8
DEFAULT_255_2_778
10
7.1437438
20
7.4748947
11
7.1437438
21
7.4748947
0
LINE
8
DEFAULT_255_2_778
10
7.0096438
20
-0.9907053
11
6.6108438
21
-0.9907053
0
LINE
8
DEFAULT_255_2_778
10
6.6108438
20
-0.9907053
11
6.6108438
21
-1.6532053
0
LINE
8
DEFAULT_255_2_778
10
6.6108438
20
-1.6532053
11
6.3875438
21
-1.6532053
0
LINE
8
DEFAULT_255_2_778
10
6.3875438
20
-1.6532053
11
6.3875438
21
0.0395947
0
LINE
8
DEFAULT_255_2_778
10
6.3875438
20
0.0395947
11
7.0120438
21
0.0395947
0
LINE
8
DEFAULT_255_2_778
10
7.0096438
20
-0.9904053
11
7.0096438
21
-0.9907053
0
LINE
8
DEFAULT_255_2_778
10
6.6108438
20
-0.1443053
11
6.6108438
21
-0.8081053
0
LINE
8
DEFAULT_255_2_778
10
6.6108438
20
-0.8081053
11
7.0120438
21
-0.8081053
0
LINE
8
DEFAULT_255_2_778
10
7.0247438
20
-0.1440053
11
6.6108438
21
-0.1440053
0
LINE
8
DEFAULT_255_2_778
10
6.6108438
20
-0.1440053
11
6.6108438
21
-0.1443053
0
LINE
8
DEFAULT_255_2_778
10
8.1293438
20
0.0395947
11
8.1293438
21
-1.6532053
0
LINE
8
DEFAULT_255_2_778
10
8.1293438
20
-1.6532053
11
7.9060438
21
-1.6532053
0
LINE
8
DEFAULT_255_2_778
10
7.9060438
20
-1.6532053
11
7.9060438
21
0.0395947
0
LINE
8
DEFAULT_255_2_778
10
7.9060438
20
0.0395947
11
8.1293438
21
0.0395947
0
LINE
8
DEFAULT_255_2_778
10
8.1293438
20
0.0395947
11
8.1293438
21
0.0395947
0
LINE
8
DEFAULT_255_2_778
10
9.1593438
20
-0.9907053
11
8.7606438
21
-0.9907053
0
LINE
8
DEFAULT_255_2_778
10
8.7606438
20
-0.9907053
11
8.7606438
21
-1.6532053
0
LINE
8
DEFAULT_255_2_778
10
8.7606438
20
-1.6532053
11
8.5373438
21
-1.6532053
0
LINE
8
DEFAULT_255_2_778
10
8.5373438
20
-1.6532053
11
8.5373438
21
0.0395947
0
LINE
8
DEFAULT_255_2_778
10
8.5373438
20
0.0395947
11
9.1617438
21
0.0395947
0
LINE
8
DEFAULT_255_2_778
10
9.1596438
20
-0.9904053
11
9.1593438
21
-0.9907053
0
LINE
8
DEFAULT_255_2_778
10
8.7606438
20
-0.1443053
11
8.7606438
21
-0.8081053
0
LINE
8
DEFAULT_255_2_778
10
8.7606438
20
-0.8081053
11
9.1617438
21
-0.8081053
0
LINE
8
DEFAULT_255_2_778
10
9.1744438
20
-0.1440053
11
8.7606438
21
-0.1440053
0
LINE
8
DEFAULT_255_2_778
10
8.7606438
20
-0.1440053
11
8.7606438
21
-0.1443053
0
LINE
8
DEFAULT_255_2_778
10
10.9966438
20
-0.6883053
11
10.9966438
21
-0.8709053
0
LINE
8
DEFAULT_255_2_778
10
10.9966438
20
-0.8709053
11
10.2629438
21
-0.8709053
0
LINE
8
DEFAULT_255_2_778
10
10.2629438
20
-0.8709053
11
10.2629438
21
-1.4709053
0
LINE
8
DEFAULT_255_2_778
10
10.2629438
20
-1.4709053
11
11.1151438
21
-1.4709053
0
LINE
8
DEFAULT_255_2_778
10
11.1151438
20
-1.4709053
11
11.1151438
21
-1.6535053
0
LINE
8
DEFAULT_255_2_778
10
11.1151438
20
-1.6535053
11
10.0396438
21
-1.6535053
0
LINE
8
DEFAULT_255_2_778
10
10.0396438
20
-1.6535053
11
10.0396438
21
0.0392947
0
LINE
8
DEFAULT_255_2_778
10
10.0396438
20
0.0392947
11
11.1035438
21
0.0392947
0
LINE
8
DEFAULT_255_2_778
10
11.1035438
20
0.0392947
11
11.1035438
21
-0.1443053
0
LINE
8
DEFAULT_255_2_778
10
11.1035438
20
-0.1443053
11
10.2629438
21
-0.1443053
0
LINE
8
DEFAULT_255_2_778
10
10.2629438
20
-0.1443053
11
10.2629438
21
-0.6886053
0
LINE
8
DEFAULT_255_2_778
10
10.2629438
20
-0.6886053
11
10.9966438
21
-0.6886053
0
LINE
8
DEFAULT_255_2_778
10
10.9966438
20
-0.6886053
11
10.9966438
21
-0.6883053
0
ENDSEC
0
EOF