0
SECTION
2
HEADER
9
$MEASUREMENT
70
1
0
ENDSEC
0
SECTION
2
TABLES
0
TABLE
2
LTYPE
0
LTYPE
72
65
70
64
2
CONTINUOUS
3
______
73
0
40
0
0
ENDTAB
0
TABLE
2
LAYER
0
LAYER
2
DEFAULT_255_2_778
70
0
62
255
6
CONTINUOUS
0
LAYER
2
DEFAULT_255_1_604
70
0
62
255
6
CONTINUOUS
0
LAYER
2
DEFAULT_255_2_778_10
70
0
62
255
6
CONTINUOUS
0
LAYER
2
DEFAULT_255_1_727
70
0
62
255
6
CONTINUOUS
0
ENDTAB
0
ENDSEC
0
SECTION
2
ENTITIES
0
LINE
8
DEFAULT_255_2_778
10
2.7781169
20
10.4510831
11
16.0073169
21
10.4510831
0
LINE
8
DEFAULT_255_2_778
10
16.0073169
20
10.4510831
11
16.0073169
21
-2.7781169
0
LINE
8
DEFAULT_255_2_778
10
16.0073169
20
-2.7781169
11
2.7781169
21
-2.7781169
0
LINE
8
DEFAULT_255_2_778
10
2.7781169
20
-2.7781169
11
2.7781169
21
10.4510831
0
LINE
8
DEFAULT_255_2_778
10
9.3264813
20
10.4510916
11
2.7780813
21
3.8364916
0
LINE
8
DEFAULT_255_2_778
10
2.7781627
20
3.8364916
11
9.3265627
21
-2.7781084
0
LINE
8
DEFAULT_255_2_778
10
9.3265627
20
-2.7781084
11
15.8750627
21
3.8364916
0
LINE
8
DEFAULT_255_2_778
10
15.8749813
20
3.8364916
11
9.3265813
21
10.4510916
0
LINE
8
DEFAULT_255_1_604
10
7.6208406
20
7.1602323
11
7.2627171
21
7.1602323
0
LINE
8
DEFAULT_255_1_604
10
7.2627171
20
7.1602323
11
7.2627171
21
6.5651
0
LINE
8
DEFAULT_255_1_604
10
7.2627171
20
6.5651
11
7.0622515
21
6.5651
0
LINE
8
DEFAULT_255_1_604
10
7.0622515
20
6.5651
11
7.0622515
21
8.0852977
0
LINE
8
DEFAULT_255_1_604
10
7.0622515
20
8.0852977
11
7.6229288
21
8.0852977
0
LINE
8
DEFAULT_255_1_604
10
7.2627171
20
7.9203312
11
7.2627171
21
7.3241547
0
LINE
8
DEFAULT_255_1_604
10
7.2627171
20
7.3241547
11
7.6229288
21
7.3241547
0
LINE
8
DEFAULT_255_1_604
10
7.6344138
20
7.9203312
11
7.2627171
21
7.9203312
0
ARC
8
DEFAULT_255_1_604
10
7.6284049
20
7.2976426
40
0.7876741
50
78.8379181
51
90.3983364
0
ARC
8
DEFAULT_255_1_604
10
7.6824843
20
7.5603298
40
0.5194916
50
58.9632993
51
79.0810081
0
ARC
8
DEFAULT_255_1_604
10
7.7216914
20
7.6331179
40
0.4369272
50
48.0196763
51
58.4473503
0
ARC
8
DEFAULT_255_1_604
10
7.7332354
20
7.6442239
40
0.4209513
50
3.3374908
51
48.1766126
0
ARC
8
DEFAULT_255_1_604
10
7.5732081
20
7.6212021
40
0.5822079
50
359.9483027
51
4.6825437
0
ARC
8
DEFAULT_255_1_604
10
7.5893496
20
7.6156773
40
0.5660881
50
346.187811
51
0.5060212
0
ARC
8
DEFAULT_255_1_604
10
7.7659963
20
7.5698031
40
0.3836049
50
310.8832963
51
346.5425636
0
ARC
8
DEFAULT_255_1_604
10
7.7258838
20
7.6240056
40
0.4508682
50
286.6925476
51
310.2288456
0
ARC
8
DEFAULT_255_1_604
10
7.6518942
20
7.8567216
40
0.6950416
50
274.6850413
51
287.0245368
0
ARC
8
DEFAULT_255_1_604
10
7.6226114
20
8.1438561
40
0.9836252
50
269.8968534
51
275.0189466
0
ARC
8
DEFAULT_255_1_604
10
7.6261955
20
7.8736157
40
0.5494707
50
269.6593667
51
279.4151209
0
ARC
8
DEFAULT_255_1_604
10
7.6596421
20
7.679826
40
0.3528224
50
279.2048717
51
294.9902009
0
ARC
8
DEFAULT_255_1_604
10
7.6973875
20
7.5956342
40
0.2605699
50
295.2884184
51
311.2913347
0
ARC
8
DEFAULT_255_1_604
10
7.7065983
20
7.5819557
40
0.2442233
50
311.7853299
51
347.285981
0
ARC
8
DEFAULT_255_1_604
10
7.5787068
20
7.6148279
40
0.376234
50
346.6891268
51
0.105898
0
ARC
8
DEFAULT_255_1_604
10
7.4862523
20
7.6185543
40
0.4686976
50
359.6294666
51
0.0041938
0
ARC
8
DEFAULT_255_1_604
10
7.6066793
20
7.6218273
40
0.3482858
50
359.4672039
51
15.5933324
0
ARC
8
DEFAULT_255_1_604
10
7.6879119
20
7.643775
40
0.2641443
50
15.744312
51
46.6202191
0
ARC
8
DEFAULT_255_1_604
10
7.6687043
20
7.6216403
40
0.2934273
50
46.8628152
51
75.6678312
0
ARC
8
DEFAULT_255_1_604
10
7.6304597
20
7.4839881
40
0.4362728
50
75.2765339
51
88.2914447
0
ARC
8
DEFAULT_255_1_604
10
7.6228919
20
7.3698245
40
0.5506271
50
87.8585073
51
88.8009899
0
LINE
8
DEFAULT_255_1_604
10
8.6127278
20
8.0852977
11
8.6127278
21
6.7290224
0
LINE
8
DEFAULT_255_1_604
10
8.6127278
20
6.7290224
11
9.3331512
21
6.7290224
0
LINE
8
DEFAULT_255_1_604
10
9.3331512
20
6.7290224
11
9.3331512
21
6.5651
0
LINE
8
DEFAULT_255_1_604
10
9.3331512
20
6.5651
11
8.4112181
21
6.5651
0
LINE
8
DEFAULT_255_1_604
10
8.4112181
20
6.5651
11
8.4112181
21
8.0852977
0
LINE
8
DEFAULT_255_1_604
10
8.4112181
20
8.0852977
11
8.6127278
21
8.0852977
0
LINE
8
DEFAULT_255_1_604
10
10.4106539
20
7.0474704
11
10.6121636
21
7.0474704
0
LINE
8
DEFAULT_255_1_604
10
9.4417367
20
7.2542006
11
9.4417367
21
7.4003734
0
LINE
8
DEFAULT_255_1_604
10
10.6121636
20
7.5966627
11
10.4106539
21
7.5966627
0
LINE
8
DEFAULT_255_1_604
10
9.6432464
20
7.395153
11
9.6432464
21
7.247936
0
ARC
8
DEFAULT_255_1_604
10
9.8996895
20
7.1251063
40
0.7166915
50
340.1775576
51
353.7812106
0
ARC
8
DEFAULT_255_1_604
10
10.1039753
20
7.0490204
40
0.4987141
50
311.4559504
51
340.4421488
0
ARC
8
DEFAULT_255_1_604
10
10.099644
20
7.0634398
40
0.5124271
50
282.4333086
51
310.7514973
0
ARC
8
DEFAULT_255_1_604
10
10.0425424
20
7.2993955
40
0.7551593
50
269.9357733
51
282.8096752
0
ARC
8
DEFAULT_255_1_604
10
10.0358319
20
7.478638
40
0.9344198
50
269.9995741
51
270.3595627
0
ARC
8
DEFAULT_255_1_604
10
10.0289553
20
7.1508123
40
0.6066331
50
250.7885824
51
270.6488458
0
ARC
8
DEFAULT_255_1_604
10
10.0070957
20
7.0679678
40
0.521251
50
219.3628447
51
250.061101
0
ARC
8
DEFAULT_255_1_604
10
10.1148907
20
7.1595776
40
0.6626984
50
193.5480378
51
219.5756113
0
ARC
8
DEFAULT_255_1_604
10
10.4232091
20
7.2396402
40
0.981209
50
181.1220108
51
193.8755006
0
ARC
8
DEFAULT_255_1_604
10
10.6915967
20
7.2540154
40
1.2498599
50
179.99151
51
181.5399535
0
ARC
8
DEFAULT_255_1_604
10
10.4517098
20
7.4052326
40
1.0099848
50
169.583756
51
180.2756585
0
ARC
8
DEFAULT_255_1_604
10
10.2128816
20
7.449361
40
0.7671142
50
155.0365328
51
169.6003042
0
ARC
8
DEFAULT_255_1_604
10
10.0652717
20
7.5205249
40
0.6032646
50
136.7831839
51
155.2472054
0
ARC
8
DEFAULT_255_1_604
10
10.0146271
20
7.5635472
40
0.5369068
50
121.7631907
51
136.4282303
0
ARC
8
DEFAULT_255_1_604
10
10.0321787
20
7.5311227
40
0.5737183
50
95.6460587
51
121.548908
0
ARC
8
DEFAULT_255_1_604
10
10.0526239
20
7.3870699
40
0.7191102
50
89.924257
51
96.1379577
0
ARC
8
DEFAULT_255_1_604
10
10.0591784
20
7.4024691
40
0.7037327
50
76.6779318
51
90.4562576
0
ARC
8
DEFAULT_255_1_604
10
10.11035
20
7.6092426
40
0.4907369
50
47.4858007
51
76.9288246
0
ARC
8
DEFAULT_255_1_604
10
10.0912372
20
7.5962476
40
0.5132589
50
16.5423853
51
46.8934164
0
ARC
8
DEFAULT_255_1_604
10
9.8822016
20
7.5275658
40
0.7332251
50
5.4074004
51
17.0363574
0
ARC
8
DEFAULT_255_1_604
10
9.6951936
20
7.4975239
40
0.7222963
50
7.8890383
51
15.9241503
0
ARC
8
DEFAULT_255_1_604
10
9.9534738
20
7.572523
40
0.4533522
50
15.7651386
51
27.9411443
0
ARC
8
DEFAULT_255_1_604
10
10.0970039
20
7.6493644
40
0.2905491
50
27.8167389
51
46.4005855
0
ARC
8
DEFAULT_255_1_604
10
10.1034606
20
7.6486241
40
0.2866793
50
47.4371997
51
75.0696919
0
ARC
8
DEFAULT_255_1_604
10
10.0633467
20
7.5089784
40
0.4319546
50
74.7008352
51
87.8127327
0
ARC
8
DEFAULT_255_1_604
10
10.0538236
20
7.3721229
40
0.5690901
50
87.3805145
51
90.0250812
0
ARC
8
DEFAULT_255_1_604
10
10.048816
20
7.5247605
40
0.4164797
50
89.345352
51
108.5744563
0
ARC
8
DEFAULT_255_1_604
10
10.0310197
20
7.5915339
40
0.3475436
50
109.2999369
51
143.3037548
0
ARC
8
DEFAULT_255_1_604
10
10.1300789
20
7.5153572
40
0.4724957
50
143.0752268
51
163.191912
0
ARC
8
DEFAULT_255_1_604
10
10.3837999
20
7.4352881
40
0.7385381
50
162.9373961
51
174.620923
0
ARC
8
DEFAULT_255_1_604
10
10.7252435
20
7.3978498
40
1.0820005
50
174.3421243
51
180.1428039
0
ARC
8
DEFAULT_255_1_604
10
10.6041593
20
7.2425981
40
0.9609277
50
179.6817205
51
189.1506051
0
ARC
8
DEFAULT_255_1_604
10
10.2790786
20
7.1884528
40
0.631376
50
188.9910195
51
203.5773417
0
ARC
8
DEFAULT_255_1_604
10
10.1387279
20
7.1302173
40
0.4794561
50
203.9076808
51
215.1312703
0
ARC
8
DEFAULT_255_1_604
10
10.0187574
20
7.0372376
40
0.3279095
50
213.9072132
51
263.884848
0
ARC
8
DEFAULT_255_1_604
10
10.0350508
20
7.1392474
40
0.4311075
50
263.1759381
51
270.1028896
0
ARC
8
DEFAULT_255_1_604
10
10.0392207
20
7.3013256
40
0.5931948
50
269.6720046
51
279.0607459
0
ARC
8
DEFAULT_255_1_604
10
10.0738983
20
7.0916999
40
0.3807256
50
278.8752379
51
293.6348896
0
ARC
8
DEFAULT_255_1_604
10
10.1155259
20
6.9939418
40
0.274481
50
293.8553414
51
310.0519576
0
ARC
8
DEFAULT_255_1_604
10
10.1161566
20
6.9858329
40
0.26791
50
311.0646716
51
332.0108643
0
ARC
8
DEFAULT_255_1_604
10
9.961178
20
7.0712962
40
0.4448784
50
331.6586146
51
343.2879852
0
ARC
8
DEFAULT_255_1_604
10
9.6930178
20
7.1537017
40
0.7254111
50
343.144835
51
351.0104737
0
ARC
8
DEFAULT_255_1_604
10
9.4840404
20
7.1916212
40
0.9377591
50
350.7171884
51
351.1575273
0
LINE
8
DEFAULT_255_2_778_10
10
4.0878501
20
5.1594
11
14.5653501
21
5.1594
0
LINE
8
DEFAULT_255_2_778_10
10
4.0878501
20
2.5136
11
14.5653501
21
2.5136
0
LINE
8
DEFAULT_255_1_727
10
8.9704979
20
1.5175178
11
8.9704979
21
-0.1275
0
LINE
8
DEFAULT_255_1_727
10
8.9704979
20
-0.1275
11
8.7613568
21
-0.1275
0
LINE
8
DEFAULT_255_1_727
10
8.7613568
20
-0.1275
11
8.7613568
21
1.2589025
0
LINE
8
DEFAULT_255_1_727
10
8.7613568
20
1.2589025
11
8.3419504
21
1.1048578
0
LINE
8
DEFAULT_255_1_727
10
8.3419504
20
1.1048578
11
8.3419504
21
1.2937594
0
LINE
8
DEFAULT_255_1_727
10
8.3419504
20
1.2937594
11
8.9378898
21
1.5175178
0
LINE
8
DEFAULT_255_1_727
10
8.9378898
20
1.5175178
11
8.9704979
21
1.5175178
0
ENDSEC
0
EOF