0
SECTION
2
HEADER
9
$MEASUREMENT
70
1
0
ENDSEC
0
SECTION
2
TABLES
0
TABLE
2
LTYPE
0
LTYPE
72
65
70
64
2
CONTINUOUS
3
______
73
0
40
0
0
ENDTAB
0
TABLE
2
LAYER
0
LAYER
2
DEFAULT_255_2_778
70
0
62
255
6
CONTINUOUS
0
LAYER
2
DEFAULT_255_1_604
70
0
62
255
6
CONTINUOUS
0
LAYER
2
DEFAULT_255_1_727
70
0
62
255
6
CONTINUOUS
0
ENDTAB
0
ENDSEC
0
SECTION
2
ENTITIES
0
LINE
8
DEFAULT_255_2_778
10
9.3927169
20
10.4510831
11
16.0073169
21
3.8364831
0
LINE
8
DEFAULT_255_2_778
10
16.0073169
20
3.8364831
11
9.3927169
21
-2.7781169
0
LINE
8
DEFAULT_255_2_778
10
9.3927169
20
-2.7781169
11
2.7781169
21
3.8364831
0
LINE
8
DEFAULT_255_2_778
10
2.7781169
20
3.8364831
11
9.3927169
21
10.4510831
0
LINE
8
DEFAULT_255_1_604
10
9.1775902
20
7.4238977
11
9.1775902
21
5.9037
0
LINE
8
DEFAULT_255_1_604
10
9.1775902
20
5.9037
11
8.9760805
21
5.9037
0
LINE
8
DEFAULT_255_1_604
10
8.9760805
20
5.9037
11
8.9760805
21
6.6063738
0
LINE
8
DEFAULT_255_1_604
10
8.9760805
20
6.6063738
11
8.2097171
21
6.6063738
0
LINE
8
DEFAULT_255_1_604
10
8.2097171
20
6.6063738
11
8.2097171
21
5.9037
0
LINE
8
DEFAULT_255_1_604
10
8.2097171
20
5.9037
11
8.0092515
21
5.9037
0
LINE
8
DEFAULT_255_1_604
10
8.0092515
20
5.9037
11
8.0092515
21
7.4238977
0
LINE
8
DEFAULT_255_1_604
10
8.0092515
20
7.4238977
11
8.2097171
21
7.4238977
0
LINE
8
DEFAULT_255_1_604
10
8.2097171
20
7.4238977
11
8.2097171
21
6.7702962
0
LINE
8
DEFAULT_255_1_604
10
8.2097171
20
6.7702962
11
8.9760805
21
6.7702962
0
LINE
8
DEFAULT_255_1_604
10
8.9760805
20
6.7702962
11
8.9760805
21
7.4238977
0
LINE
8
DEFAULT_255_1_604
10
8.9760805
20
7.4238977
11
9.1775902
21
7.4238977
0
LINE
8
DEFAULT_255_1_604
10
9.7487084
20
7.4238977
11
9.7487084
21
5.9037
0
LINE
8
DEFAULT_255_1_604
10
9.7487084
20
5.9037
11
9.5482428
21
5.9037
0
LINE
8
DEFAULT_255_1_604
10
9.5482428
20
5.9037
11
9.5482428
21
7.4238977
0
LINE
8
DEFAULT_255_1_604
10
9.5482428
20
7.4238977
11
9.7487084
21
7.4238977
0
LINE
8
DEFAULT_255_1_727
10
9.0366979
20
2.1789178
11
9.0366979
21
0.5339
0
LINE
8
DEFAULT_255_1_727
10
9.0366979
20
0.5339
11
8.8275568
21
0.5339
0
LINE
8
DEFAULT_255_1_727
10
8.8275568
20
0.5339
11
8.8275568
21
1.9203025
0
LINE
8
DEFAULT_255_1_727
10
8.8275568
20
1.9203025
11
8.4081504
21
1.7662578
0
LINE
8
DEFAULT_255_1_727
10
8.4081504
20
1.7662578
11
8.4081504
21
1.9551594
0
LINE
8
DEFAULT_255_1_727
10
8.4081504
20
1.9551594
11
9.0040898
21
2.1789178
0
LINE
8
DEFAULT_255_1_727
10
9.0040898
20
2.1789178
11
9.0366979
21
2.1789178
0
ENDSEC
0
EOF