0
SECTION
2
HEADER
9
$MEASUREMENT
70
1
0
ENDSEC
0
SECTION
2
TABLES
0
TABLE
2
LTYPE
0
LTYPE
72
65
70
64
2
CONTINUOUS
3
______
73
0
40
0
0
ENDTAB
0
TABLE
2
LAYER
0
LAYER
2
DEFAULT_255_2_778
70
0
62
255
6
CONTINUOUS
0
ENDTAB
0
ENDSEC
0
SECTION
2
ENTITIES
0
LINE
8
DEFAULT_255_2_778
10
2.7781169
20
-0.1323
11
16.0073169
21
-0.1323
0
LINE
8
DEFAULT_255_2_778
10
6.7468667
20
2.5135333
11
12.0385667
21
2.5135333
0
LINE
8
DEFAULT_255_2_778
10
12.0385667
20
2.5135333
11
12.0385667
21
-2.7781667
0
LINE
8
DEFAULT_255_2_778
10
12.0385667
20
-2.7781667
11
6.7468667
21
-2.7781667
0
LINE
8
DEFAULT_255_2_778
10
6.7468667
20
-2.7781667
11
6.7468667
21
2.5135333
0
LINE
8
DEFAULT_255_2_778
10
8.6434292
20
0.6739427
11
8.8998292
21
0.6739427
0
LINE
8
DEFAULT_255_2_778
10
8.8998292
20
0.6739427
11
9.3916292
21
-0.5539573
0
LINE
8
DEFAULT_255_2_778
10
9.3916292
20
-0.5539573
11
9.8835292
21
0.6739427
0
LINE
8
DEFAULT_255_2_778
10
9.8835292
20
0.6739427
11
10.1409292
21
0.6739427
0
LINE
8
DEFAULT_255_2_778
10
10.1409292
20
0.6739427
11
10.1409292
21
-0.8307573
0
LINE
8
DEFAULT_255_2_778
10
10.1409292
20
-0.8307573
11
9.9425292
21
-0.8307573
0
LINE
8
DEFAULT_255_2_778
10
9.9425292
20
-0.8307573
11
9.9425292
21
-0.2446573
0
LINE
8
DEFAULT_255_2_778
10
9.9425292
20
-0.2446573
11
9.9610292
21
0.3879427
0
LINE
8
DEFAULT_255_2_778
10
9.9610292
20
0.3879427
11
9.4670292
21
-0.8304573
0
LINE
8
DEFAULT_255_2_778
10
9.4670292
20
-0.8304573
11
9.3152292
21
-0.8304573
0
LINE
8
DEFAULT_255_2_778
10
9.3152292
20
-0.8304573
11
8.8223292
21
0.3850427
0
LINE
8
DEFAULT_255_2_778
10
8.8223292
20
0.3850427
11
8.8418292
21
-0.2444573
0
LINE
8
DEFAULT_255_2_778
10
8.8418292
20
-0.2444573
11
8.8418292
21
-0.8304573
0
LINE
8
DEFAULT_255_2_778
10
8.8418292
20
-0.8304573
11
8.6434292
21
-0.8304573
0
LINE
8
DEFAULT_255_2_778
10
8.6434292
20
-0.8304573
11
8.6434292
21
0.6739427
0
LINE
8
DEFAULT_255_2_778
10
8.6434292
20
0.6739427
11
8.6434292
21
0.6739427
0
ENDSEC
0
EOF