0
SECTION
2
HEADER
9
$MEASUREMENT
70
1
0
ENDSEC
0
SECTION
2
TABLES
0
TABLE
2
LTYPE
0
LTYPE
72
65
70
64
2
CONTINUOUS
3
______
73
0
40
0
0
ENDTAB
0
TABLE
2
LAYER
0
LAYER
2
DEFAULT_255_2_778
70
0
62
255
6
CONTINUOUS
0
ENDTAB
0
ENDSEC
0
SECTION
2
ENTITIES
0
LINE
8
DEFAULT_255_2_778
10
2.7781169
20
-0.1323
11
16.0073169
21
-0.1323
0
LINE
8
DEFAULT_255_2_778
10
6.7468667
20
2.5135333
11
12.0385667
21
2.5135333
0
LINE
8
DEFAULT_255_2_778
10
12.0385667
20
2.5135333
11
12.0385667
21
-2.7781667
0
LINE
8
DEFAULT_255_2_778
10
12.0385667
20
-2.7781667
11
6.7468667
21
-2.7781667
0
LINE
8
DEFAULT_255_2_778
10
6.7468667
20
-2.7781667
11
6.7468667
21
2.5135333
0
ARC
8
DEFAULT_255_2_778
10
12.0704549
20
1.1949156
40
3.2069244
50
175.8222137
51
180.0763607
0
ARC
8
DEFAULT_255_2_778
10
11.4012115
20
1.2446641
40
2.5358351
50
170.9094974
51
175.8416647
0
ARC
8
DEFAULT_255_2_778
10
10.8156285
20
1.339289
40
1.942657
50
165.1324882
51
170.9365619
0
ARC
8
DEFAULT_255_2_778
10
10.3178905
20
1.4727611
40
1.4273362
50
157.9534971
51
165.1843366
0
ARC
8
DEFAULT_255_2_778
10
9.9158996
20
1.6371558
40
0.9930331
50
148.6522156
51
158.0390734
0
ARC
8
DEFAULT_255_2_778
10
9.6257209
20
1.8157423
40
0.6523086
50
136.0099771
51
148.7890013
0
ARC
8
DEFAULT_255_2_778
10
9.4503208
20
1.9881361
40
0.4063879
50
116.0793731
51
136.3214726
0
ARC
8
DEFAULT_255_2_778
10
9.3943903
20
2.0994439
40
0.281828
50
90.3470211
51
115.8144045
0
ARC
8
DEFAULT_255_2_778
10
9.3880418
20
2.0831467
40
0.298156
50
54.6839497
51
89.1080034
0
ARC
8
DEFAULT_255_2_778
10
9.2844674
20
1.9276942
40
0.4849059
50
38.6584436
51
55.3162053
0
ARC
8
DEFAULT_255_2_778
10
9.0685427
20
1.7511136
40
0.7638298
50
27.6141108
51
38.8839138
0
ARC
8
DEFAULT_255_2_778
10
8.7390377
20
1.5762404
40
1.1368589
50
19.255078
51
27.7261444
0
ARC
8
DEFAULT_255_2_778
10
8.3064251
20
1.4229238
40
1.5958322
50
12.7663257
51
19.329597
0
ARC
8
DEFAULT_255_2_778
10
7.7879309
20
1.3038957
40
2.1278119
50
7.4329732
51
12.8070185
0
ARC
8
DEFAULT_255_2_778
10
7.1839704
20
1.2241005
40
2.7370203
50
2.7978918
51
7.4537522
0
ARC
8
DEFAULT_255_2_778
10
6.6040763
20
1.1926913
40
3.3177577
50
359.9646029
51
2.8508287
0
ARC
8
DEFAULT_255_2_778
10
12.0704549
20
-1.4595324
40
3.2069244
50
179.9236393
51
184.1777863
0
ARC
8
DEFAULT_255_2_778
10
11.4012115
20
-1.5092809
40
2.5358351
50
184.1583353
51
189.0905026
0
ARC
8
DEFAULT_255_2_778
10
10.8156285
20
-1.6039059
40
1.942657
50
189.0634381
51
194.8675118
0
ARC
8
DEFAULT_255_2_778
10
10.3178905
20
-1.7373779
40
1.4273362
50
194.8156634
51
202.0465029
0
ARC
8
DEFAULT_255_2_778
10
9.9158996
20
-1.9017726
40
0.9930331
50
201.9609266
51
211.3477844
0
ARC
8
DEFAULT_255_2_778
10
9.6257209
20
-2.0803591
40
0.6523086
50
211.2109987
51
223.9900229
0
ARC
8
DEFAULT_255_2_778
10
9.4503208
20
-2.2527529
40
0.4063879
50
223.6785274
51
243.9206269
0
ARC
8
DEFAULT_255_2_778
10
9.3943903
20
-2.3640607
40
0.281828
50
244.1855955
51
269.6529789
0
ARC
8
DEFAULT_255_2_778
10
9.3880418
20
-2.3477635
40
0.298156
50
270.8919966
51
305.3160503
0
ARC
8
DEFAULT_255_2_778
10
9.2844674
20
-2.192311
40
0.4849059
50
304.6837947
51
321.3415564
0
ARC
8
DEFAULT_255_2_778
10
9.0685427
20
-2.0157304
40
0.7638298
50
321.1160862
51
332.3858892
0
ARC
8
DEFAULT_255_2_778
10
8.7390377
20
-1.8408572
40
1.1368589
50
332.2738556
51
340.744922
0
ARC
8
DEFAULT_255_2_778
10
8.3064251
20
-1.6875407
40
1.5958322
50
340.670403
51
347.2336743
0
ARC
8
DEFAULT_255_2_778
10
7.7879309
20
-1.5685125
40
2.1278119
50
347.1929815
51
352.5670268
0
ARC
8
DEFAULT_255_2_778
10
7.1839704
20
-1.4887173
40
2.7370203
50
352.5462478
51
357.2021082
0
ARC
8
DEFAULT_255_2_778
10
6.6040763
20
-1.4573081
40
3.3177577
50
357.1491713
51
0.0353971
0
LINE
8
DEFAULT_255_2_778
10
9.9218333
20
-1.4552584
11
8.8635333
21
1.1906416
0
LINE
8
DEFAULT_255_2_778
10
9.9218333
20
1.1906416
11
8.8635333
21
-1.4552584
0
LINE
8
DEFAULT_255_2_778
10
9.9218333
20
-1.4552584
11
9.9218333
21
-1.4552584
0
ENDSEC
0
EOF