0
SECTION
2
HEADER
9
$MEASUREMENT
70
1
0
ENDSEC
0
SECTION
2
TABLES
0
TABLE
2
LTYPE
0
LTYPE
72
65
70
64
2
CONTINUOUS
3
______
73
0
40
0
0
ENDTAB
0
TABLE
2
LAYER
0
LAYER
2
DEFAULT_255_2_778
70
0
62
255
6
CONTINUOUS
0
ENDTAB
0
ENDSEC
0
SECTION
2
ENTITIES
0
LINE
8
DEFAULT_255_2_778
10
2.7781169
20
-0.1323
11
16.0073169
21
-0.1323
0
ARC
8
DEFAULT_255_2_778
10
12.0256006
20
25.5841636
40
24.3935338
50
268.2674789
51
270.0304551
0
ARC
8
DEFAULT_255_2_778
10
11.8855655
20
20.9532682
40
19.7605217
50
266.385641
51
268.2673699
0
ARC
8
DEFAULT_255_2_778
10
11.6362781
20
17.0509787
40
15.8502793
50
264.0910736
51
266.3957221
0
ARC
8
DEFAULT_255_2_778
10
11.2835101
20
13.6637447
40
12.4447259
50
261.3447381
51
264.1011397
0
ARC
8
DEFAULT_255_2_778
10
10.8474719
20
10.8178521
40
9.5656246
50
257.9480676
51
261.3614921
0
ARC
8
DEFAULT_255_2_778
10
10.3465427
20
8.4848474
40
7.1794498
50
253.7092595
51
257.9701009
0
ARC
8
DEFAULT_255_2_778
10
9.8172518
20
6.6806092
40
5.2991785
50
248.5198838
51
253.7301319
0
ARC
8
DEFAULT_255_2_778
10
9.2778144
20
5.3197423
40
3.8353024
50
241.5398142
51
248.5744215
0
ARC
8
DEFAULT_255_2_778
10
8.7500034
20
4.3518669
40
2.7328704
50
232.1633341
51
241.5982091
0
ARC
8
DEFAULT_255_2_778
10
8.2868921
20
3.7593303
40
1.9808302
50
218.9709821
51
232.2292411
0
ARC
8
DEFAULT_255_2_778
10
8.3030799
20
-4.0391905
40
2.0029928
50
126.8644549
51
140.9816118
0
ARC
8
DEFAULT_255_2_778
10
8.7924254
20
-4.6820695
40
2.8109088
50
117.6987507
51
126.9832034
0
ARC
8
DEFAULT_255_2_778
10
9.3231617
20
-5.683191
40
3.9440066
50
110.9650607
51
117.7651678
0
ARC
8
DEFAULT_255_2_778
10
9.8672803
20
-7.0920893
40
5.4543206
50
105.7767659
51
111.0070322
0
ARC
8
DEFAULT_255_2_778
10
10.3994261
20
-8.9620714
40
7.3985433
50
101.6639908
51
105.8051823
0
ARC
8
DEFAULT_255_2_778
10
10.8637763
20
-11.1800797
40
9.6646305
50
98.735548
51
101.7015926
0
ARC
8
DEFAULT_255_2_778
10
11.2699601
20
-13.8234939
40
12.3390694
50
96.0052859
51
98.7355754
0
ARC
8
DEFAULT_255_2_778
10
11.6289301
20
-17.2215337
40
15.7560173
50
93.6185679
51
96.0107274
0
ARC
8
DEFAULT_255_2_778
10
11.8885367
20
-21.2695186
40
19.8123168
50
91.6690428
51
93.6289924
0
ARC
8
DEFAULT_255_2_778
10
12.0264124
20
-25.9312519
40
24.4760882
50
89.9715481
51
91.6738154
0
LINE
8
DEFAULT_255_2_778
10
12.0385667
20
-1.4551667
11
12.0385667
21
1.1906333
0
LINE
8
DEFAULT_255_2_778
10
6.7468667
20
2.5135333
11
6.7468667
21
-2.7781667
0
LINE
8
DEFAULT_255_2_778
10
12.0385667
20
-1.4551667
11
12.0385667
21
-1.4551667
0
ENDSEC
0
EOF