0
SECTION
2
HEADER
9
$MEASUREMENT
70
1
0
ENDSEC
0
SECTION
2
TABLES
0
TABLE
2
LTYPE
0
LTYPE
72
65
70
64
2
CONTINUOUS
3
______
73
0
40
0
0
ENDTAB
0
TABLE
2
LAYER
0
LAYER
2
DEFAULT_255_2_778
70
0
62
255
6
CONTINUOUS
0
ENDTAB
0
ENDSEC
0
SECTION
2
ENTITIES
0
LINE
8
DEFAULT_255_2_778
10
2.7781169
20
-1.4553
11
16.0073169
21
-1.4553
0
ARC
8
DEFAULT_255_2_778
10
8.6463258
20
9.9443843
40
10.5299785
50
292.337151
51
296.6014042
0
ARC
8
DEFAULT_255_2_778
10
9.0225478
20
9.0266616
40
9.538133
50
287.3055482
51
292.3419231
0
ARC
8
DEFAULT_255_2_778
10
9.2665057
20
8.2405515
40
8.7150391
50
281.0350395
51
287.3116466
0
ARC
8
DEFAULT_255_2_778
10
9.3852216
20
7.6208336
40
8.0840566
50
270.9066691
51
281.0499158
0
ARC
8
DEFAULT_255_2_778
10
9.3926593
20
7.4764458
40
7.9395709
50
270.0001139
51
270.8694891
0
ARC
8
DEFAULT_255_2_778
10
9.3975787
20
7.5963127
40
8.0594392
50
259.3230605
51
269.9651399
0
ARC
8
DEFAULT_255_2_778
10
9.5092795
20
8.2020012
40
8.6753369
50
253.0094672
51
259.3392385
0
ARC
8
DEFAULT_255_2_778
10
9.7416758
20
8.9668335
40
9.4746959
50
248.0436628
51
253.0169754
0
ARC
8
DEFAULT_255_2_778
10
10.0908099
20
9.8361139
40
10.4114679
50
243.963989
51
248.0503371
0
ARC
8
DEFAULT_255_2_778
10
10.3472662
20
10.3751294
40
11.0083528
50
243.4336044
51
243.9960638
0
ARC
8
DEFAULT_255_2_778
10
10.1388236
20
-12.8546732
40
10.5296326
50
112.336545
51
116.6008204
0
ARC
8
DEFAULT_255_2_778
10
9.7626906
20
-11.9371378
40
9.5379942
50
107.3049827
51
112.3413207
0
ARC
8
DEFAULT_255_2_778
10
9.5187825
20
-11.1511508
40
8.7150326
50
101.0345824
51
107.3111001
0
ARC
8
DEFAULT_255_2_778
10
9.4001223
20
-10.5316988
40
8.0843216
50
90.9065939
51
101.0494485
0
ARC
8
DEFAULT_255_2_778
10
9.3926909
20
-10.3870428
40
7.9395678
50
90.0001139
51
90.8694891
0
ARC
8
DEFAULT_255_2_778
10
9.3877697
20
-10.5074047
40
8.0599312
50
79.3236556
51
89.9651288
0
ARC
8
DEFAULT_255_2_778
10
9.2760393
20
-11.1132921
40
8.6760298
50
73.0105206
51
79.3398417
0
ARC
8
DEFAULT_255_2_778
10
9.0436245
20
-11.8782298
40
9.4754951
50
68.0450745
51
73.0180183
0
ARC
8
DEFAULT_255_2_778
10
8.6944626
20
-12.7476305
40
10.4123891
50
63.9656973
51
68.0517263
0
ARC
8
DEFAULT_255_2_778
10
8.4383996
20
-13.2858802
40
11.0084134
50
63.4353074
51
63.9977694
0
LINE
8
DEFAULT_255_2_778
10
13.3614501
20
-3.4396251
11
13.3614501
21
0.5290749
0
LINE
8
DEFAULT_255_2_778
10
5.4239501
20
0.5290749
11
5.4239501
21
-3.4396251
0
LINE
8
DEFAULT_255_2_778
10
13.3614501
20
-3.4396251
11
13.3614501
21
-3.4396251
0
ENDSEC
0
EOF