0
SECTION
2
HEADER
9
$MEASUREMENT
70
1
0
ENDSEC
0
SECTION
2
TABLES
0
TABLE
2
LTYPE
0
LTYPE
72
65
70
64
2
CONTINUOUS
3
______
73
0
40
0
0
ENDTAB
0
TABLE
2
LAYER
0
LAYER
2
DEFAULT_255_2_778
70
0
62
255
6
CONTINUOUS
0
ENDTAB
0
ENDSEC
0
SECTION
2
ENTITIES
0
LINE
8
DEFAULT_255_2_778
10
2.7781169
20
-0.1323
11
16.0073169
21
-0.1323
0
LINE
8
DEFAULT_255_2_778
10
6.7468667
20
2.5135333
11
12.0385667
21
2.5135333
0
LINE
8
DEFAULT_255_2_778
10
12.0385667
20
2.5135333
11
12.0385667
21
-2.7781667
0
LINE
8
DEFAULT_255_2_778
10
12.0385667
20
-2.7781667
11
6.7468667
21
-2.7781667
0
LINE
8
DEFAULT_255_2_778
10
6.7468667
20
-2.7781667
11
6.7468667
21
2.5135333
0
ARC
8
DEFAULT_255_2_778
10
8.0671332
20
-0.1292865
40
1.3202532
50
148.7968675
51
180.1300552
0
ARC
8
DEFAULT_255_2_778
10
8.0662736
20
-0.1288532
40
1.3192936
50
97.5665172
51
148.7936255
0
ARC
8
DEFAULT_255_2_778
10
8.069379
20
-0.1555742
40
1.3461909
50
89.9827905
51
97.547783
0
ARC
8
DEFAULT_255_2_778
10
8.0727802
20
-0.1296332
40
1.3202532
50
58.7968675
51
90.1300552
0
ARC
8
DEFAULT_255_2_778
10
8.0732136
20
-0.1287736
40
1.3192936
50
7.5665172
51
58.7936255
0
ARC
8
DEFAULT_255_2_778
10
8.0464926
20
-0.131879
40
1.3461909
50
359.9827905
51
7.547783
0
ARC
8
DEFAULT_255_2_778
10
8.0724335
20
-0.1352802
40
1.3202532
50
328.7968675
51
0.1300552
0
ARC
8
DEFAULT_255_2_778
10
8.0732931
20
-0.1357136
40
1.3192936
50
277.5665172
51
328.7936255
0
ARC
8
DEFAULT_255_2_778
10
8.0701877
20
-0.1089926
40
1.3461909
50
269.9827905
51
277.547783
0
ARC
8
DEFAULT_255_2_778
10
8.0667865
20
-0.1349335
40
1.3202532
50
238.7968675
51
270.1300552
0
ARC
8
DEFAULT_255_2_778
10
8.0663532
20
-0.1357931
40
1.3192936
50
187.5665172
51
238.7936255
0
ARC
8
DEFAULT_255_2_778
10
8.0930742
20
-0.1326877
40
1.3461909
50
179.9827905
51
187.547783
0
LINE
8
DEFAULT_255_2_778
10
6.7468834
20
-0.1322834
11
6.7468834
21
-0.1322834
0
ARC
8
DEFAULT_255_2_778
10
10.7129332
20
-0.1292865
40
1.3202532
50
148.7968675
51
180.1300552
0
ARC
8
DEFAULT_255_2_778
10
10.7120736
20
-0.1288532
40
1.3192936
50
97.5665172
51
148.7936255
0
ARC
8
DEFAULT_255_2_778
10
10.715179
20
-0.1555742
40
1.3461909
50
89.9827905
51
97.547783
0
ARC
8
DEFAULT_255_2_778
10
10.7185802
20
-0.1296332
40
1.3202532
50
58.7968675
51
90.1300552
0
ARC
8
DEFAULT_255_2_778
10
10.7190136
20
-0.1287736
40
1.3192936
50
7.5665172
51
58.7936255
0
ARC
8
DEFAULT_255_2_778
10
10.6922926
20
-0.131879
40
1.3461909
50
359.9827905
51
7.547783
0
ARC
8
DEFAULT_255_2_778
10
10.7182335
20
-0.1352802
40
1.3202532
50
328.7968675
51
0.1300552
0
ARC
8
DEFAULT_255_2_778
10
10.7190931
20
-0.1357136
40
1.3192936
50
277.5665172
51
328.7936255
0
ARC
8
DEFAULT_255_2_778
10
10.7159877
20
-0.1089926
40
1.3461909
50
269.9827905
51
277.547783
0
ARC
8
DEFAULT_255_2_778
10
10.7125865
20
-0.1349335
40
1.3202532
50
238.7968675
51
270.1300552
0
ARC
8
DEFAULT_255_2_778
10
10.7121532
20
-0.1357931
40
1.3192936
50
187.5665172
51
238.7936255
0
ARC
8
DEFAULT_255_2_778
10
10.7388742
20
-0.1326877
40
1.3461909
50
179.9827905
51
187.547783
0
LINE
8
DEFAULT_255_2_778
10
9.3926834
20
-0.1322834
11
9.3926834
21
-0.1322834
0
ENDSEC
0
EOF