0
SECTION
2
HEADER
9
$MEASUREMENT
70
1
0
ENDSEC
0
SECTION
2
TABLES
0
TABLE
2
LTYPE
0
LTYPE
72
65
70
64
2
CONTINUOUS
3
______
73
0
40
0
0
ENDTAB
0
TABLE
2
LAYER
0
LAYER
2
DEFAULT_255_2_778
70
0
62
255
6
CONTINUOUS
0
LAYER
2
DEFAULT_255_1_604
70
0
62
255
6
CONTINUOUS
0
ENDTAB
0
ENDSEC
0
SECTION
2
ENTITIES
0
LINE
8
DEFAULT_255_2_778
10
16.0073169
20
1.1906
11
2.7781169
21
1.1906
0
LINE
8
DEFAULT_255_2_778
10
10.6719323
20
4.1010166
11
14.6848323
21
1.1906166
0
LINE
8
DEFAULT_255_2_778
10
14.6848323
20
1.1906166
11
10.6719323
21
-1.7197834
0
ARC
8
DEFAULT_255_2_778
10
8.1001059
20
1.1944294
40
3.9990575
50
164.958672
51
180.0541499
0
ARC
8
DEFAULT_255_2_778
10
8.0517844
20
1.2040887
40
3.9498864
50
139.5324886
51
164.9120823
0
ARC
8
DEFAULT_255_2_778
10
8.0604121
20
1.2008868
40
3.9585294
50
107.8307628
51
139.5782791
0
ARC
8
DEFAULT_255_2_778
10
8.0632531
20
1.1783154
40
3.9808888
50
91.6628438
51
107.7702122
0
ARC
8
DEFAULT_255_2_778
10
8.0696728
20
1.0785686
40
4.0807814
50
89.9989151
51
91.7123026
0
ARC
8
DEFAULT_255_2_778
10
8.0735333
20
1.160008
40
3.9993437
50
74.9592121
51
90.0541994
0
ARC
8
DEFAULT_255_2_778
10
8.0832483
20
1.2085176
40
3.9499763
50
49.5331489
51
74.9127022
0
ARC
8
DEFAULT_255_2_778
10
8.0801326
20
1.1999957
40
3.958483
50
17.8308607
51
49.5788931
0
ARC
8
DEFAULT_255_2_778
10
8.057535
20
1.1971475
40
3.9808695
50
1.662844
51
17.7702931
0
ARC
8
DEFAULT_255_2_778
10
7.9577688
20
1.1907272
40
4.0807814
50
359.9989151
51
1.7123026
0
ARC
8
DEFAULT_255_2_778
10
8.0392193
20
1.186866
40
3.9993326
50
344.9591794
51
0.05421
0
ARC
8
DEFAULT_255_2_778
10
8.0877606
20
1.1771458
40
3.9499331
50
319.5327264
51
344.9126214
0
ARC
8
DEFAULT_255_2_778
10
8.0791769
20
1.1803261
40
3.9585286
50
287.8301403
51
319.57834
0
ARC
8
DEFAULT_255_2_778
10
8.0762544
20
1.2031298
40
3.9811341
50
271.6627163
51
287.7696917
0
ARC
8
DEFAULT_255_2_778
10
8.0698274
20
1.3030019
40
4.0811521
50
269.9989151
51
271.7122237
0
ARC
8
DEFAULT_255_2_778
10
8.0659699
20
1.2208946
40
3.9990465
50
254.9586392
51
270.0541605
0
ARC
8
DEFAULT_255_2_778
10
8.0563055
20
1.1725414
40
3.9498431
50
229.5320661
51
254.9120015
0
ARC
8
DEFAULT_255_2_778
10
8.0595719
20
1.1812308
40
3.958575
50
197.8300424
51
229.577726
0
ARC
8
DEFAULT_255_2_778
10
8.0823494
20
1.1841462
40
3.9811535
50
181.6627161
51
197.7696108
0
ARC
8
DEFAULT_255_2_778
10
8.1822021
20
1.1905726
40
4.0811521
50
179.9989151
51
181.7122237
0
LINE
8
DEFAULT_255_2_778
10
4.1010501
20
1.1906499
11
4.1010501
21
1.1906499
0
LINE
8
DEFAULT_255_1_604
10
7.0129295
20
1.9346
11
6.6829965
21
2.5495701
0
LINE
8
DEFAULT_255_1_604
10
6.6829965
20
2.5495701
11
6.3259171
21
2.5495701
0
LINE
8
DEFAULT_255_1_604
10
6.3259171
20
2.5495701
11
6.3259171
21
1.9346
0
LINE
8
DEFAULT_255_1_604
10
6.3259171
20
1.9346
11
6.1244074
21
1.9346
0
LINE
8
DEFAULT_255_1_604
10
6.1244074
20
1.9346
11
6.1244074
21
3.4547977
0
LINE
8
DEFAULT_255_1_604
10
6.1244074
20
3.4547977
11
6.6276597
21
3.4547977
0
LINE
8
DEFAULT_255_1_604
10
6.8709331
20
2.5923778
11
7.2280125
21
1.9471291
0
LINE
8
DEFAULT_255_1_604
10
7.2280125
20
1.9471291
11
7.2280125
21
1.9346
0
LINE
8
DEFAULT_255_1_604
10
7.2280125
20
1.9346
11
7.0129295
21
1.9346
0
LINE
8
DEFAULT_255_1_604
10
6.3259171
20
3.2898312
11
6.3259171
21
2.7134925
0
LINE
8
DEFAULT_255_1_604
10
6.3259171
20
2.7134925
11
6.6339242
21
2.7134925
0
LINE
8
DEFAULT_255_1_604
10
6.6328801
20
3.2898312
11
6.3259171
21
3.2898312
0
ARC
8
DEFAULT_255_1_604
10
6.6330751
20
2.5498694
40
0.9049445
50
80.6534298
51
90.3428782
0
ARC
8
DEFAULT_255_1_604
10
6.6876053
20
2.8699757
40
0.5802347
50
65.6985442
51
80.8330543
0
ARC
8
DEFAULT_255_1_604
10
6.7496957
20
3.0123087
40
0.4249655
50
50.0017241
51
65.4306932
0
ARC
8
DEFAULT_255_1_604
10
6.7780931
20
3.0506758
40
0.3773321
50
11.6284612
51
49.5603452
0
ARC
8
DEFAULT_255_1_604
10
6.5784752
20
3.0019057
40
0.582732
50
359.5653823
51
12.369169
0
ARC
8
DEFAULT_255_1_604
10
6.718451
20
2.9937591
40
0.4427552
50
341.9982919
51
0.4822194
0
ARC
8
DEFAULT_255_1_604
10
6.7697778
20
2.9798279
40
0.3896446
50
323.8608663
51
341.6140542
0
ARC
8
DEFAULT_255_1_604
10
6.7305501
20
3.0101195
40
0.4391908
50
296.7018753
51
323.6875271
0
ARC
8
DEFAULT_255_1_604
10
6.6732256
20
3.1126173
40
0.5565405
50
290.808375
51
297.2324914
0
ARC
8
DEFAULT_255_1_604
10
6.6372694
20
3.1806525
40
0.467172
50
269.5897295
51
281.8058768
0
ARC
8
DEFAULT_255_1_604
10
6.6698866
20
3.0314688
40
0.3144739
50
281.5499349
51
303.935729
0
ARC
8
DEFAULT_255_1_604
10
6.6877506
20
3.0005133
40
0.2788292
50
304.4412701
51
311.2116295
0
ARC
8
DEFAULT_255_1_604
10
6.704893
20
2.9824478
40
0.2539468
50
310.987447
51
356.2715628
0
ARC
8
DEFAULT_255_1_604
10
6.6065494
20
2.9971074
40
0.3531316
50
354.9355631
51
0.0613455
0
ARC
8
DEFAULT_255_1_604
10
6.5822509
20
3.0006218
40
0.377443
50
359.5238974
51
12.8810874
0
ARC
8
DEFAULT_255_1_604
10
6.709321
20
3.0317279
40
0.2466444
50
12.4174629
51
43.1021461
0
ARC
8
DEFAULT_255_1_604
10
6.7173023
20
3.0365061
40
0.2375601
50
43.5760474
51
48.2039879
0
ARC
8
DEFAULT_255_1_604
10
6.6952941
20
3.0077524
40
0.2736785
50
48.7810032
51
72.6968122
0
ARC
8
DEFAULT_255_1_604
10
6.6492309
20
2.8679606
40
0.4208513
50
72.3699971
51
84.8793256
0
ARC
8
DEFAULT_255_1_604
10
6.6300527
20
2.6935341
40
0.5963037
50
84.5398091
51
89.728323
0
LINE
8
DEFAULT_255_1_604
10
7.4420513
20
3.4547977
11
7.700986
21
3.4547977
0
LINE
8
DEFAULT_255_1_604
10
7.700986
20
3.4547977
11
8.1979737
21
2.2144166
0
LINE
8
DEFAULT_255_1_604
10
8.1979737
20
2.2144166
11
8.6949614
21
3.4547977
0
LINE
8
DEFAULT_255_1_604
10
8.6949614
20
3.4547977
11
8.9549403
21
3.4547977
0
LINE
8
DEFAULT_255_1_604
10
8.9549403
20
3.4547977
11
8.9549403
21
1.9346
0
LINE
8
DEFAULT_255_1_604
10
8.9549403
20
1.9346
11
8.7544747
21
1.9346
0
LINE
8
DEFAULT_255_1_604
10
8.7544747
20
1.9346
11
8.7544747
21
2.5266
0
LINE
8
DEFAULT_255_1_604
10
8.7544747
20
2.5266
11
8.7732683
21
3.1655842
0
LINE
8
DEFAULT_255_1_604
10
8.7732683
20
3.1655842
11
8.2741924
21
1.9346
0
LINE
8
DEFAULT_255_1_604
10
8.2741924
20
1.9346
11
8.1207109
21
1.9346
0
LINE
8
DEFAULT_255_1_604
10
8.1207109
20
1.9346
11
7.6226792
21
3.162452
0
LINE
8
DEFAULT_255_1_604
10
7.6226792
20
3.162452
11
7.6425169
21
2.5266
0
LINE
8
DEFAULT_255_1_604
10
7.6425169
20
2.5266
11
7.6425169
21
1.9346
0
LINE
8
DEFAULT_255_1_604
10
7.6425169
20
1.9346
11
7.4420513
21
1.9346
0
LINE
8
DEFAULT_255_1_604
10
7.4420513
20
1.9346
11
7.4420513
21
3.4547977
0
LINE
8
DEFAULT_255_1_604
10
7.7012429
20
0.8166063
11
7.7012429
21
-0.7109
0
LINE
8
DEFAULT_255_1_604
10
7.7012429
20
-0.7109
11
7.5070418
21
-0.7109
0
LINE
8
DEFAULT_255_1_604
10
7.5070418
20
-0.7109
11
7.5070418
21
0.5764652
0
LINE
8
DEFAULT_255_1_604
10
7.5070418
20
0.5764652
11
7.1175956
21
0.4334246
0
LINE
8
DEFAULT_255_1_604
10
7.1175956
20
0.4334246
11
7.1175956
21
0.608832
0
LINE
8
DEFAULT_255_1_604
10
7.1175956
20
0.608832
11
7.6709643
21
0.8166063
0
LINE
8
DEFAULT_255_1_604
10
7.6709643
20
0.8166063
11
7.7012429
21
0.8166063
0
ENDSEC
0
EOF