0
SECTION
2
HEADER
9
$MEASUREMENT
70
1
0
ENDSEC
0
SECTION
2
TABLES
0
TABLE
2
LTYPE
0
LTYPE
72
65
70
64
2
CONTINUOUS
3
______
73
0
40
0
0
ENDTAB
0
TABLE
2
LAYER
0
LAYER
2
DEFAULT_255_2_778
70
0
62
255
6
CONTINUOUS
0
ENDTAB
0
ENDSEC
0
SECTION
2
ENTITIES
0
LINE
8
DEFAULT_255_2_778
10
18.6531002
20
-0.1323
11
2.7781002
21
-0.1323
0
LINE
8
DEFAULT_255_2_778
10
5.4239335
20
2.5135583
11
16.0072335
21
2.5135583
0
LINE
8
DEFAULT_255_2_778
10
16.0072335
20
2.5135583
11
16.0072335
21
1.1906583
0
LINE
8
DEFAULT_255_2_778
10
16.0072335
20
1.1906583
11
5.4239335
21
1.1906583
0
LINE
8
DEFAULT_255_2_778
10
5.4239335
20
1.1906583
11
5.4239335
21
2.5135583
0
LINE
8
DEFAULT_255_2_778
10
5.4239335
20
1.1906166
11
16.0072335
21
1.1906166
0
LINE
8
DEFAULT_255_2_778
10
16.0072335
20
1.1906166
11
16.0072335
21
-1.4551834
0
LINE
8
DEFAULT_255_2_778
10
16.0072335
20
-1.4551834
11
5.4239335
21
-1.4551834
0
LINE
8
DEFAULT_255_2_778
10
5.4239335
20
-1.4551834
11
5.4239335
21
1.1906166
0
LINE
8
DEFAULT_255_2_778
10
5.4239335
20
-1.4551417
11
16.0072335
21
-1.4551417
0
LINE
8
DEFAULT_255_2_778
10
16.0072335
20
-1.4551417
11
16.0072335
21
-2.7780417
0
LINE
8
DEFAULT_255_2_778
10
16.0072335
20
-2.7780417
11
5.4239335
21
-2.7780417
0
LINE
8
DEFAULT_255_2_778
10
5.4239335
20
-2.7780417
11
5.4239335
21
-1.4551417
0
ENDSEC
0
EOF