0
SECTION
2
HEADER
9
$MEASUREMENT
70
1
0
ENDSEC
0
SECTION
2
TABLES
0
TABLE
2
LTYPE
0
LTYPE
72
65
70
64
2
CONTINUOUS
3
______
73
0
40
0
0
ENDTAB
0
TABLE
2
LAYER
0
LAYER
2
DEFAULT_255_2_778
70
0
62
255
6
CONTINUOUS
0
LAYER
2
DEFAULT_255_1_850
70
0
62
255
6
CONTINUOUS
0
ENDTAB
0
ENDSEC
0
SECTION
2
ENTITIES
0
LINE
8
DEFAULT_255_2_778
10
2.7781667
20
2.5135333
11
8.0698667
21
2.5135333
0
LINE
8
DEFAULT_255_2_778
10
8.0698667
20
2.5135333
11
8.0698667
21
-2.7781667
0
LINE
8
DEFAULT_255_2_778
10
8.0698667
20
-2.7781667
11
2.7781667
21
-2.7781667
0
LINE
8
DEFAULT_255_2_778
10
2.7781667
20
-2.7781667
11
2.7781667
21
2.5135333
0
LINE
8
DEFAULT_255_2_778
10
5.1593333
20
1.0319667
11
5.1593333
21
1.1906667
0
LINE
8
DEFAULT_255_2_778
10
5.1593333
20
1.1906667
11
4.1010333
21
1.1906667
0
LINE
8
DEFAULT_255_2_778
10
4.1010333
20
1.1906667
11
4.6302333
21
0.6614667
0
LINE
8
DEFAULT_255_2_778
10
4.6302333
20
0.6614667
11
4.1010333
21
0.1323667
0
LINE
8
DEFAULT_255_2_778
10
4.1010333
20
0.1323667
11
5.1593333
21
0.1323667
0
LINE
8
DEFAULT_255_2_778
10
5.1593333
20
0.1323667
11
5.1593333
21
0.2646667
0
LINE
8
DEFAULT_255_2_778
10
6.7468834
20
1.1906166
11
4.1010834
21
-1.4551834
0
LINE
8
DEFAULT_255_1_850
10
5.3254631
20
-0.0675753
11
5.5362919
21
-0.0675753
0
LINE
8
DEFAULT_255_1_850
10
5.5362919
20
-0.0675753
11
5.5435204
21
-0.2314194
0
LINE
8
DEFAULT_255_1_850
10
6.3506937
20
-0.5097135
11
6.3506937
21
-1.3711
0
LINE
8
DEFAULT_255_1_850
10
6.3506937
20
-1.3711
11
6.1278175
21
-1.3711
0
LINE
8
DEFAULT_255_1_850
10
6.1278175
20
-1.3711
11
6.1278175
21
-0.5085088
0
LINE
8
DEFAULT_255_1_850
10
5.5483393
20
-0.4422483
11
5.5483393
21
-1.3711
0
LINE
8
DEFAULT_255_1_850
10
5.5483393
20
-1.3711
11
5.3254631
21
-1.3711
0
LINE
8
DEFAULT_255_1_850
10
5.3254631
20
-1.3711
11
5.3254631
21
-0.0675753
0
ARC
8
DEFAULT_255_1_850
10
5.9342215
20
-0.5331293
40
0.4936357
50
116.4595487
51
142.3237269
0
ARC
8
DEFAULT_255_1_850
10
5.9257258
20
-0.536282
40
0.4927552
50
89.9344937
51
115.4117811
0
ARC
8
DEFAULT_255_1_850
10
5.9338276
20
-0.6532367
40
0.6097561
50
89.9974324
51
90.7083642
0
ARC
8
DEFAULT_255_1_850
10
5.9431184
20
-0.5656322
40
0.5222338
50
71.6503615
51
91.0163781
0
ARC
8
DEFAULT_255_1_850
10
5.9965926
20
-0.3883824
40
0.3372
50
13.4487603
51
70.7929801
0
ARC
8
DEFAULT_255_1_850
10
5.6513141
20
-0.4978697
40
0.6989649
50
1.3248973
51
15.5954253
0
ARC
8
DEFAULT_255_1_850
10
5.3458536
20
-0.517283
40
1.0048685
50
0.4316022
51
2.0288246
0
ARC
8
DEFAULT_255_1_850
10
5.6243261
20
-0.5099548
40
0.5034935
50
0.1645511
51
8.9344758
0
ARC
8
DEFAULT_255_1_850
10
5.8135174
20
-0.4792166
40
0.3118254
50
8.7538735
51
22.2902637
0
ARC
8
DEFAULT_255_1_850
10
5.9138351
20
-0.437847
40
0.2033128
50
22.2260683
51
42.6536575
0
ARC
8
DEFAULT_255_1_850
10
5.9233054
20
-0.4342362
40
0.1939377
50
43.7648886
51
71.2774144
0
ARC
8
DEFAULT_255_1_850
10
5.8851167
20
-0.5401999
40
0.3065596
50
70.8746419
51
84.3178698
0
ARC
8
DEFAULT_255_1_850
10
5.8676108
20
-0.6876018
40
0.4549793
50
83.9620251
51
90.1537717
0
ARC
8
DEFAULT_255_1_850
10
5.8634421
20
-0.5760882
40
0.3434767
50
89.5082981
51
108.7920937
0
ARC
8
DEFAULT_255_1_850
10
5.8540173
20
-0.5417405
40
0.3079312
50
109.1906863
51
125.3081076
0
ARC
8
DEFAULT_255_1_850
10
5.9029371
20
-0.6109467
40
0.3926816
50
125.2967267
51
154.5574281
0
ENDSEC
0
EOF