0
SECTION
2
HEADER
9
$MEASUREMENT
70
1
0
ENDSEC
0
SECTION
2
TABLES
0
TABLE
2
LTYPE
0
LTYPE
72
65
70
64
2
CONTINUOUS
3
______
73
0
40
0
0
ENDTAB
0
TABLE
2
LAYER
0
LAYER
2
DEFAULT_255_2_778
70
0
62
255
6
CONTINUOUS
0
ENDTAB
0
ENDSEC
0
SECTION
2
ENTITIES
0
LINE
8
DEFAULT_255_2_778
10
2.7781667
20
2.5135333
11
8.0698667
21
2.5135333
0
LINE
8
DEFAULT_255_2_778
10
8.0698667
20
2.5135333
11
8.0698667
21
-2.7781667
0
LINE
8
DEFAULT_255_2_778
10
8.0698667
20
-2.7781667
11
2.7781667
21
-2.7781667
0
LINE
8
DEFAULT_255_2_778
10
2.7781667
20
-2.7781667
11
2.7781667
21
2.5135333
0
LINE
8
DEFAULT_255_2_778
10
4.1010834
20
-0.1323
11
6.7468834
21
-0.1323
0
ARC
8
DEFAULT_255_2_778
10
5.4235475
20
0.7611525
40
0.2310583
50
89.8903778
51
180.1096222
0
ARC
8
DEFAULT_255_2_778
10
5.4244954
20
0.7612162
40
0.2309948
50
359.8745553
51
90.1254622
0
ARC
8
DEFAULT_255_2_778
10
5.4245592
20
0.760141
40
0.2309311
50
269.8586802
51
0.1412726
0
ARC
8
DEFAULT_255_2_778
10
5.4234837
20
0.7602045
40
0.2309947
50
179.8745253
51
270.1254921
0
LINE
8
DEFAULT_255_2_778
10
5.1924896
20
0.7607104
11
5.1924896
21
0.7607104
0
ARC
8
DEFAULT_255_2_778
10
5.4235475
20
-1.0247475
40
0.2310583
50
89.8903778
51
180.1096222
0
ARC
8
DEFAULT_255_2_778
10
5.4244954
20
-1.0246838
40
0.2309948
50
359.8745553
51
90.1254622
0
ARC
8
DEFAULT_255_2_778
10
5.4245592
20
-1.025759
40
0.2309311
50
269.8586802
51
0.1412726
0
ARC
8
DEFAULT_255_2_778
10
5.4234837
20
-1.0256955
40
0.2309947
50
179.8745253
51
270.1254921
0
LINE
8
DEFAULT_255_2_778
10
5.1924896
20
-1.0251896
11
5.1924896
21
-1.0251896
0
ENDSEC
0
EOF