0
SECTION
2
HEADER
9
$MEASUREMENT
70
1
0
ENDSEC
0
SECTION
2
TABLES
0
TABLE
2
LTYPE
0
LTYPE
72
65
70
64
2
CONTINUOUS
3
______
73
0
40
0
0
ENDTAB
0
TABLE
2
LAYER
0
LAYER
2
DEFAULT_255_2_778
70
0
62
255
6
CONTINUOUS
0
LAYER
2
DEFAULT_255_2_778_10
70
0
62
255
6
CONTINUOUS
0
LAYER
2
DEFAULT_255_1_604
70
0
62
255
6
CONTINUOUS
0
LAYER
2
DEFAULT_255_1_727
70
0
62
255
6
CONTINUOUS
0
ENDTAB
0
ENDSEC
0
SECTION
2
ENTITIES
0
ARC
8
DEFAULT_255_2_778
10
9.4714482
20
3.8406008
40
6.6933326
50
168.541472
51
180.0352475
0
ARC
8
DEFAULT_255_2_778
10
9.3536576
20
3.8624864
40
6.5735422
50
153.0463229
51
168.5244689
0
ARC
8
DEFAULT_255_2_778
10
9.3822328
20
3.8462071
40
6.6063925
50
109.7078398
51
153.0328055
0
ARC
8
DEFAULT_255_2_778
10
9.3740716
20
3.8498054
40
6.6002561
50
96.3164082
51
109.6516769
0
ARC
8
DEFAULT_255_2_778
10
9.3912407
20
3.7069124
40
6.7441708
50
89.9874593
51
96.3278261
0
ARC
8
DEFAULT_255_2_778
10
9.3968345
20
3.7577518
40
6.6933326
50
78.541472
51
90.0352475
0
ARC
8
DEFAULT_255_2_778
10
9.4187201
20
3.8755424
40
6.5735422
50
63.0463229
51
78.5244689
0
ARC
8
DEFAULT_255_2_778
10
9.4024408
20
3.8469672
40
6.6063925
50
19.7078398
51
63.0328055
0
ARC
8
DEFAULT_255_2_778
10
9.4060391
20
3.8551284
40
6.6002561
50
6.3164082
51
19.6516769
0
ARC
8
DEFAULT_255_2_778
10
9.2631461
20
3.8379593
40
6.7441708
50
359.9874593
51
6.3278261
0
ARC
8
DEFAULT_255_2_778
10
9.3139855
20
3.8323655
40
6.6933326
50
348.541472
51
0.0352475
0
ARC
8
DEFAULT_255_2_778
10
9.4317761
20
3.8104799
40
6.5735422
50
333.0463229
51
348.5244689
0
ARC
8
DEFAULT_255_2_778
10
9.4032009
20
3.8267592
40
6.6063925
50
289.7078398
51
333.0328055
0
ARC
8
DEFAULT_255_2_778
10
9.4113621
20
3.8231609
40
6.6002561
50
276.3164082
51
289.6516769
0
ARC
8
DEFAULT_255_2_778
10
9.394193
20
3.9660539
40
6.7441708
50
269.9874593
51
276.3278261
0
ARC
8
DEFAULT_255_2_778
10
9.3885992
20
3.9152145
40
6.6933326
50
258.541472
51
270.0352475
0
ARC
8
DEFAULT_255_2_778
10
9.3667136
20
3.7974239
40
6.5735422
50
243.0463229
51
258.5244689
0
ARC
8
DEFAULT_255_2_778
10
9.3829929
20
3.8259991
40
6.6063925
50
199.7078398
51
243.0328055
0
ARC
8
DEFAULT_255_2_778
10
9.3793946
20
3.8178379
40
6.6002561
50
186.3164082
51
199.6516769
0
ARC
8
DEFAULT_255_2_778
10
9.5222876
20
3.835007
40
6.7441708
50
179.9874593
51
186.3278261
0
LINE
8
DEFAULT_255_2_778
10
2.7781169
20
3.8364831
11
2.7781169
21
3.8364831
0
LINE
8
DEFAULT_255_2_778_10
10
2.7781169
20
3.8365
11
16.0073169
21
3.8365
0
LINE
8
DEFAULT_255_1_604
10
8.4690205
20
5.4626
11
8.0482515
21
5.4626
0
LINE
8
DEFAULT_255_1_604
10
8.0482515
20
5.4626
11
8.0482515
21
6.9827977
0
LINE
8
DEFAULT_255_1_604
10
8.0482515
20
6.9827977
11
8.4773732
21
6.9827977
0
LINE
8
DEFAULT_255_1_604
10
9.1476802
20
6.2738593
11
9.1476802
21
6.1767588
0
LINE
8
DEFAULT_255_1_604
10
8.4825937
20
6.8178312
11
8.2487171
21
6.8178312
0
LINE
8
DEFAULT_255_1_604
10
8.2487171
20
6.8178312
11
8.2487171
21
5.6265224
0
LINE
8
DEFAULT_255_1_604
10
8.2487171
20
5.6265224
11
8.4596237
21
5.6265224
0
LINE
8
DEFAULT_255_1_604
10
8.9493027
20
6.1809352
11
8.9493027
21
6.269683
0
ARC
8
DEFAULT_255_1_604
10
8.4824353
20
6.2203318
40
0.7624827
50
75.4100774
51
90.3803846
0
ARC
8
DEFAULT_255_1_604
10
8.5122716
20
6.3446839
40
0.6346294
50
60.1456505
51
75.1888808
0
ARC
8
DEFAULT_255_1_604
10
8.5329109
20
6.3806547
40
0.5931579
50
26.5254235
51
60.1450903
0
ARC
8
DEFAULT_255_1_604
10
8.3872949
20
6.3034364
40
0.757942
50
7.4029017
51
26.832236
0
ARC
8
DEFAULT_255_1_604
10
8.180031
20
6.271149
40
0.967653
50
0.1604823
51
7.717504
0
ARC
8
DEFAULT_255_1_604
10
8.2013451
20
6.171782
40
0.9463482
50
348.7290162
51
0.3013178
0
ARC
8
DEFAULT_255_1_604
10
8.4166764
20
6.1290071
40
0.7268094
50
333.0706801
51
348.7182579
0
ARC
8
DEFAULT_255_1_604
10
8.5423499
20
6.0607513
40
0.583864
50
299.2531206
51
333.4571395
0
ARC
8
DEFAULT_255_1_604
10
8.4954381
20
6.1498642
40
0.6845416
50
278.1072459
51
299.0340304
0
ARC
8
DEFAULT_255_1_604
10
8.4621688
20
6.3458393
40
0.8832658
50
270.4444611
51
278.4509945
0
ARC
8
DEFAULT_255_1_604
10
8.4648785
20
6.2250535
40
0.5985542
50
269.4969829
51
284.020426
0
ARC
8
DEFAULT_255_1_604
10
8.5110654
20
6.0475776
40
0.4151796
50
283.7700501
51
318.1556027
0
ARC
8
DEFAULT_255_1_604
10
8.4672226
20
6.0803891
40
0.4697543
50
318.7416475
51
343.6872757
0
ARC
8
DEFAULT_255_1_604
10
8.2327015
20
6.1536391
40
0.7154224
50
343.3325746
51
355.8546968
0
ARC
8
DEFAULT_255_1_604
10
7.9598445
20
6.179571
40
0.9894591
50
355.4991336
51
0.0789924
0
ARC
8
DEFAULT_255_1_604
10
8.0616851
20
6.2751758
40
0.8876346
50
359.6454412
51
9.8607665
0
ARC
8
DEFAULT_255_1_604
10
8.3685588
20
6.3305934
40
0.5758076
50
9.657244
51
26.1932279
0
ARC
8
DEFAULT_255_1_604
10
8.4892028
20
6.3866282
40
0.4428288
50
26.5777141
51
40.1534131
0
ARC
8
DEFAULT_255_1_604
10
8.5224408
20
6.4125604
40
0.4007056
50
40.3839847
51
80.1431575
0
ARC
8
DEFAULT_255_1_604
10
8.4799485
20
6.2241702
40
0.5936668
50
79.2151462
51
89.7447056
0
LINE
8
DEFAULT_255_1_604
10
9.6655497
20
6.9827977
11
9.6655497
21
5.4626
0
LINE
8
DEFAULT_255_1_604
10
9.6655497
20
5.4626
11
9.4650841
21
5.4626
0
LINE
8
DEFAULT_255_1_604
10
9.4650841
20
5.4626
11
9.4650841
21
6.9827977
0
LINE
8
DEFAULT_255_1_604
10
9.4650841
20
6.9827977
11
9.6655497
21
6.9827977
0
LINE
8
DEFAULT_255_1_727
10
9.0366979
20
2.1789178
11
9.0366979
21
0.5339
0
LINE
8
DEFAULT_255_1_727
10
9.0366979
20
0.5339
11
8.8275568
21
0.5339
0
LINE
8
DEFAULT_255_1_727
10
8.8275568
20
0.5339
11
8.8275568
21
1.9203025
0
LINE
8
DEFAULT_255_1_727
10
8.8275568
20
1.9203025
11
8.4081504
21
1.7662578
0
LINE
8
DEFAULT_255_1_727
10
8.4081504
20
1.7662578
11
8.4081504
21
1.9551594
0
LINE
8
DEFAULT_255_1_727
10
8.4081504
20
1.9551594
11
9.0040898
21
2.1789178
0
LINE
8
DEFAULT_255_1_727
10
9.0040898
20
2.1789178
11
9.0366979
21
2.1789178
0
ENDSEC
0
EOF