0
SECTION
2
HEADER
9
$MEASUREMENT
70
1
0
ENDSEC
0
SECTION
2
TABLES
0
TABLE
2
LTYPE
0
LTYPE
72
65
70
64
2
CONTINUOUS
3
______
73
0
40
0
0
ENDTAB
0
TABLE
2
LAYER
0
LAYER
2
DEFAULT_255_2_778
70
0
62
255
6
CONTINUOUS
0
ENDTAB
0
ENDSEC
0
SECTION
2
ENTITIES
0
LINE
8
DEFAULT_255_2_778
10
6.7469
20
-1.4883043
11
6.7469
21
6.5814957
0
ARC
8
DEFAULT_255_2_778
10
6.7442332
20
7.7090135
40
1.3202532
50
148.7968675
51
180.1300552
0
ARC
8
DEFAULT_255_2_778
10
6.7433736
20
7.7094468
40
1.3192936
50
97.5665172
51
148.7936255
0
ARC
8
DEFAULT_255_2_778
10
6.746479
20
7.6827258
40
1.3461909
50
89.9827905
51
97.547783
0
ARC
8
DEFAULT_255_2_778
10
6.7498802
20
7.7086668
40
1.3202532
50
58.7968675
51
90.1300552
0
ARC
8
DEFAULT_255_2_778
10
6.7503136
20
7.7095264
40
1.3192936
50
7.5665172
51
58.7936255
0
ARC
8
DEFAULT_255_2_778
10
6.7235926
20
7.706421
40
1.3461909
50
359.9827905
51
7.547783
0
ARC
8
DEFAULT_255_2_778
10
6.7495335
20
7.7030198
40
1.3202532
50
328.7968675
51
0.1300552
0
ARC
8
DEFAULT_255_2_778
10
6.7503931
20
7.7025864
40
1.3192936
50
277.5665172
51
328.7936255
0
ARC
8
DEFAULT_255_2_778
10
6.7472877
20
7.7293074
40
1.3461909
50
269.9827905
51
277.547783
0
ARC
8
DEFAULT_255_2_778
10
6.7438865
20
7.7033665
40
1.3202532
50
238.7968675
51
270.1300552
0
ARC
8
DEFAULT_255_2_778
10
6.7434532
20
7.7025069
40
1.3192936
50
187.5665172
51
238.7936255
0
ARC
8
DEFAULT_255_2_778
10
6.7701742
20
7.7056123
40
1.3461909
50
179.9827905
51
187.547783
0
LINE
8
DEFAULT_255_2_778
10
5.4239834
20
7.7060166
11
5.4239834
21
7.7060166
0
ARC
8
DEFAULT_255_2_778
10
6.7442332
20
5.0632135
40
1.3202532
50
148.7968675
51
180.1300552
0
ARC
8
DEFAULT_255_2_778
10
6.7433736
20
5.0636468
40
1.3192936
50
97.5665172
51
148.7936255
0
ARC
8
DEFAULT_255_2_778
10
6.746479
20
5.0369258
40
1.3461909
50
89.9827905
51
97.547783
0
ARC
8
DEFAULT_255_2_778
10
6.7498802
20
5.0628668
40
1.3202532
50
58.7968675
51
90.1300552
0
ARC
8
DEFAULT_255_2_778
10
6.7503136
20
5.0637264
40
1.3192936
50
7.5665172
51
58.7936255
0
ARC
8
DEFAULT_255_2_778
10
6.7235926
20
5.060621
40
1.3461909
50
359.9827905
51
7.547783
0
ARC
8
DEFAULT_255_2_778
10
6.7495335
20
5.0572198
40
1.3202532
50
328.7968675
51
0.1300552
0
ARC
8
DEFAULT_255_2_778
10
6.7503931
20
5.0567864
40
1.3192936
50
277.5665172
51
328.7936255
0
ARC
8
DEFAULT_255_2_778
10
6.7472877
20
5.0835074
40
1.3461909
50
269.9827905
51
277.547783
0
ARC
8
DEFAULT_255_2_778
10
6.7438865
20
5.0575665
40
1.3202532
50
238.7968675
51
270.1300552
0
ARC
8
DEFAULT_255_2_778
10
6.7434532
20
5.0567069
40
1.3192936
50
187.5665172
51
238.7936255
0
ARC
8
DEFAULT_255_2_778
10
6.7701742
20
5.0598123
40
1.3461909
50
179.9827905
51
187.547783
0
LINE
8
DEFAULT_255_2_778
10
5.4239834
20
5.0602166
11
5.4239834
21
5.0602166
0
LINE
8
DEFAULT_255_2_778
10
9.3924
20
-0.1653834
11
9.3924
21
-2.8111834
0
LINE
8
DEFAULT_255_2_778
10
10.7156
20
-0.1653834
11
10.7156
21
-2.8111834
0
LINE
8
DEFAULT_255_2_778
10
9.3926834
20
-1.4883
11
6.7468834
21
-1.4883
0
LINE
8
DEFAULT_255_2_778
10
4.1013
20
-0.1653834
11
4.1013
21
-2.8111834
0
LINE
8
DEFAULT_255_2_778
10
2.7781
20
-0.1653834
11
2.7781
21
-2.8111834
0
LINE
8
DEFAULT_255_2_778
10
4.1012834
20
-1.4883
11
6.7470834
21
-1.4883
0
ENDSEC
0
EOF