0
SECTION
2
HEADER
9
$MEASUREMENT
70
1
0
ENDSEC
0
SECTION
2
TABLES
0
TABLE
2
LTYPE
0
LTYPE
72
65
70
64
2
CONTINUOUS
3
______
73
0
40
0
0
ENDTAB
0
TABLE
2
LAYER
0
LAYER
2
DEFAULT_255_2_778
70
0
62
255
6
CONTINUOUS
0
ENDTAB
0
ENDSEC
0
SECTION
2
ENTITIES
0
LINE
8
DEFAULT_255_2_778
10
2.7781335
20
-0.1322834
11
13.3614335
21
-0.1322834
0
LINE
8
DEFAULT_255_2_778
10
13.3614335
20
-0.1322834
11
13.3614335
21
-2.7780834
0
LINE
8
DEFAULT_255_2_778
10
13.3614335
20
-2.7780834
11
2.7781335
21
-2.7780834
0
LINE
8
DEFAULT_255_2_778
10
2.7781335
20
-2.7780834
11
2.7781335
21
-0.1322834
0
LINE
8
DEFAULT_255_2_778
10
2.7781335
20
-2.7780834
11
4.1010335
21
-0.1322834
0
LINE
8
DEFAULT_255_2_778
10
4.1010335
20
-0.1322834
11
5.4239335
21
-2.7780834
0
LINE
8
DEFAULT_255_2_778
10
5.4239335
20
-2.7780834
11
6.7468335
21
-0.1322834
0
LINE
8
DEFAULT_255_2_778
10
6.7468335
20
-0.1322834
11
8.0698335
21
-2.7780834
0
LINE
8
DEFAULT_255_2_778
10
8.0698335
20
-2.7780834
11
9.3927335
21
-0.1322834
0
LINE
8
DEFAULT_255_2_778
10
9.3927335
20
-0.1322834
11
10.7156335
21
-2.7780834
0
LINE
8
DEFAULT_255_2_778
10
10.7156335
20
-2.7780834
11
12.0385335
21
-0.1322834
0
LINE
8
DEFAULT_255_2_778
10
12.0385335
20
-0.1322834
11
13.3614335
21
-2.7780834
0
ENDSEC
0
EOF