0
SECTION
2
HEADER
9
$MEASUREMENT
70
1
0
ENDSEC
0
SECTION
2
TABLES
0
TABLE
2
LTYPE
0
LTYPE
72
65
70
64
2
CONTINUOUS
3
______
73
0
40
0
0
ENDTAB
0
TABLE
2
LAYER
0
LAYER
2
DEFAULT_255_2_778
70
0
62
255
6
CONTINUOUS
0
ENDTAB
0
ENDSEC
0
SECTION
2
ENTITIES
0
ARC
8
DEFAULT_255_2_778
10
5.4441888
20
40.8051207
40
2.6661471
50
148.7670369
51
179.569924
0
ARC
8
DEFAULT_255_2_778
10
6.2386098
20
40.3597165
40
3.5765152
50
137.0200821
51
149.2648217
0
ARC
8
DEFAULT_255_2_778
10
6.9712465
20
39.6851788
40
4.5723714
50
127.9696693
51
137.0950459
0
ARC
8
DEFAULT_255_2_778
10
7.6619966
20
38.8066468
40
5.6899317
50
120.5161859
51
128.0102686
0
ARC
8
DEFAULT_255_2_778
10
8.2708847
20
37.7785346
40
6.8848183
50
113.8519209
51
120.5369226
0
ARC
8
DEFAULT_255_2_778
10
8.7676
20
36.6594677
40
8.1091687
50
107.5369193
51
113.8644328
0
ARC
8
DEFAULT_255_2_778
10
9.1174693
20
35.5601406
40
9.2628254
50
101.5368931
51
107.5515104
0
ARC
8
DEFAULT_255_2_778
10
9.3140578
20
34.6081379
40
10.2349117
50
95.6882366
51
101.5493048
0
ARC
8
DEFAULT_255_2_778
10
9.3880734
20
33.8868541
40
10.9599802
50
89.9757255
51
95.6995328
0
ARC
8
DEFAULT_255_2_778
10
9.3981517
20
33.9100879
40
10.9367467
50
83.8738836
51
90.0284724
0
ARC
8
DEFAULT_255_2_778
10
9.4830143
20
34.6842095
40
10.1579897
50
77.8457432
51
83.8838435
0
ARC
8
DEFAULT_255_2_778
10
9.6955639
20
35.6640618
40
9.1553504
50
71.862873
51
77.8550223
0
ARC
8
DEFAULT_255_2_778
10
10.0600519
20
36.7695014
40
7.9913736
50
65.4916524
51
71.8791003
0
ARC
8
DEFAULT_255_2_778
10
10.5724549
20
37.889682
40
6.7595627
50
58.721851
51
65.5048422
0
ARC
8
DEFAULT_255_2_778
10
11.2015495
20
38.9200212
40
5.5523554
50
50.9181225
51
58.7498665
0
ARC
8
DEFAULT_255_2_778
10
11.9157953
20
39.794004
40
4.4236489
50
41.3427966
51
50.9627441
0
ARC
8
DEFAULT_255_2_778
10
12.6556485
20
40.4389049
40
3.4421942
50
28.4774409
51
41.4184744
0
ARC
8
DEFAULT_255_2_778
10
13.3710016
20
40.8102857
40
2.6363569
50
0.3226838
51
28.7956983
0
ARC
8
DEFAULT_255_2_778
10
5.3091722
20
2.5326609
40
2.5311277
50
180.4333622
51
210.9140385
0
ARC
8
DEFAULT_255_2_778
10
6.082767
20
2.9619648
40
3.4155046
50
210.425558
51
222.7190216
0
ARC
8
DEFAULT_255_2_778
10
6.8221585
20
3.637283
40
4.4168694
50
222.6482365
51
231.9155148
0
ARC
8
DEFAULT_255_2_778
10
7.5426385
20
4.5503371
40
5.579946
50
231.8754814
51
239.5289779
0
ARC
8
DEFAULT_255_2_778
10
8.1896237
20
5.6442884
40
6.8508954
50
239.5048762
51
246.2540104
0
ARC
8
DEFAULT_255_2_778
10
8.7137646
20
6.8288783
40
8.1462606
50
246.2346459
51
252.3848854
0
ARC
8
DEFAULT_255_2_778
10
9.0826564
20
7.9824007
40
9.3573301
50
252.3694903
51
258.1566364
0
ARC
8
DEFAULT_255_2_778
10
9.2995225
20
9.0086157
40
10.4062084
50
258.1476483
51
263.989406
0
ARC
8
DEFAULT_255_2_778
10
9.386749
20
9.8182931
40
11.2205684
50
263.9793788
51
269.9338141
0
ARC
8
DEFAULT_255_2_778
10
9.3925924
20
10.0787352
40
11.4810184
50
269.906154
51
270.0006211
0
ARC
8
DEFAULT_255_2_778
10
9.3981748
20
9.8277901
40
11.2300748
50
269.9721535
51
275.9457723
0
ARC
8
DEFAULT_255_2_778
10
9.4801356
20
9.0490072
40
10.4469914
50
275.9411216
51
281.4295723
0
ARC
8
DEFAULT_255_2_778
10
9.6839336
20
8.0543265
40
9.431651
50
281.4134908
51
287.2956616
0
ARC
8
DEFAULT_255_2_778
10
10.0458379
20
6.8980608
40
8.220073
50
287.2832583
51
293.3833747
0
ARC
8
DEFAULT_255_2_778
10
10.5603933
20
5.7140338
40
6.9290731
50
293.3637247
51
300.0696175
0
ARC
8
DEFAULT_255_2_778
10
11.2025416
20
4.6097624
40
5.6516685
50
300.0449933
51
307.6587431
0
ARC
8
DEFAULT_255_2_778
10
11.9219605
20
3.6824511
40
4.4780168
50
307.6204822
51
316.7812949
0
ARC
8
DEFAULT_255_2_778
10
12.6618921
20
2.9927353
40
3.4664907
50
316.7140712
51
328.7556904
0
ARC
8
DEFAULT_255_2_778
10
13.3845891
20
2.5677701
40
2.628212
50
328.5044462
51
351.0600029
0
ARC
8
DEFAULT_255_2_778
10
13.6237333
20
2.5134145
40
2.3835835
50
351.4574025
51
0.0024541
0
LINE
8
DEFAULT_255_2_778
10
2.7781169
20
2.5134911
11
16.0073169
21
2.5134911
0
LINE
8
DEFAULT_255_2_778
10
16.0073169
20
2.5134911
11
16.0073169
21
40.8780911
0
LINE
8
DEFAULT_255_2_778
10
16.0073169
20
40.8780911
11
2.7781169
21
40.8780911
0
LINE
8
DEFAULT_255_2_778
10
2.7781169
20
40.8780911
11
2.7781169
21
2.5134911
0
LINE
8
DEFAULT_255_2_778
10
2.7781169
20
4.8587666
11
2.7781169
21
-2.7781334
0
LINE
8
DEFAULT_255_2_778
10
2.7781169
20
-2.7781334
11
16.0073169
21
-2.7781334
0
LINE
8
DEFAULT_255_2_778
10
16.0073169
20
-2.7781334
11
16.0073169
21
4.3496666
0
ENDSEC
0
EOF