0
SECTION
2
HEADER
9
$MEASUREMENT
70
1
0
ENDSEC
0
SECTION
2
TABLES
0
TABLE
2
LTYPE
0
LTYPE
72
65
70
64
2
CONTINUOUS
3
______
73
0
40
0
0
ENDTAB
0
TABLE
2
LAYER
0
LAYER
2
DEFAULT_255_2_778
70
0
62
255
6
CONTINUOUS
0
ENDTAB
0
ENDSEC
0
SECTION
2
ENTITIES
0
ARC
8
DEFAULT_255_2_778
10
4.0881229
20
1.7150027
40
2.1214699
50
89.651313
51
99.4995419
0
ARC
8
DEFAULT_255_2_778
10
3.9584026
20
2.4638137
40
1.3615254
50
99.3161539
51
114.7838841
0
ARC
8
DEFAULT_255_2_778
10
3.8046924
20
2.8058141
40
0.9865973
50
115.0053053
51
163.5305431
0
ARC
8
DEFAULT_255_2_778
10
4.4087776
20
2.5922088
40
1.6268022
50
162.3477554
51
175.0365692
0
ARC
8
DEFAULT_255_2_778
10
5.1019596
20
2.5181792
40
2.3238308
50
174.6968603
51
180.1145488
0
ARC
8
DEFAULT_255_2_778
10
4.8998809
20
-0.1451785
40
2.1217867
50
179.6513337
51
189.4988298
0
ARC
8
DEFAULT_255_2_778
10
4.1509298
20
-0.2749139
40
1.3617016
50
189.3154142
51
204.7822053
0
ARC
8
DEFAULT_255_2_778
10
3.8087902
20
-0.4286899
40
0.9866194
50
205.0028998
51
253.5286475
0
ARC
8
DEFAULT_255_2_778
10
4.0223643
20
0.1752913
40
1.6267163
50
252.3465561
51
265.0360801
0
ARC
8
DEFAULT_255_2_778
10
4.0963876
20
0.8683738
40
2.3236452
50
264.6964349
51
270.1145573
0
ARC
8
DEFAULT_255_2_778
10
12.0514461
20
0.6659945
40
2.1213005
50
269.65123
51
279.5002523
0
ARC
8
DEFAULT_255_2_778
10
12.1811577
20
-0.0827174
40
1.361455
50
279.316927
51
294.7855627
0
ARC
8
DEFAULT_255_2_778
10
12.3348146
20
-0.4246068
40
0.9866502
50
295.0077098
51
343.5324207
0
ARC
8
DEFAULT_255_2_778
10
11.7305606
20
-0.2109504
40
1.6270309
50
342.3490177
51
355.036967
0
ARC
8
DEFAULT_255_2_778
10
11.0372535
20
-0.1369129
40
2.3241846
50
354.6972656
51
0.1145376
0
ARC
8
DEFAULT_255_2_778
10
11.2400029
20
2.5264439
40
2.1214699
50
359.651313
51
9.4995419
0
ARC
8
DEFAULT_255_2_778
10
11.9888139
20
2.6561642
40
1.3615254
50
9.3161539
51
24.7838841
0
ARC
8
DEFAULT_255_2_778
10
12.3308143
20
2.8098743
40
0.9865973
50
25.0053053
51
73.5305431
0
ARC
8
DEFAULT_255_2_778
10
12.117209
20
2.2057891
40
1.6268022
50
72.3477554
51
85.0365692
0
ARC
8
DEFAULT_255_2_778
10
12.0431794
20
1.5126071
40
2.3238308
50
84.6968603
51
90.1145488
0
LINE
8
DEFAULT_255_2_778
10
12.0385335
20
3.8364333
11
4.1010335
21
3.8364333
0
LINE
8
DEFAULT_255_2_778
10
2.7781335
20
2.5135333
11
2.7781335
21
-0.1322667
0
LINE
8
DEFAULT_255_2_778
10
4.1010335
20
-1.4552667
11
12.0385335
21
-1.4552667
0
LINE
8
DEFAULT_255_2_778
10
13.3614335
20
-0.1322667
11
13.3614335
21
2.5135333
0
LINE
8
DEFAULT_255_2_778
10
12.0385335
20
3.8364333
11
12.0385335
21
3.8364333
0
LINE
8
DEFAULT_255_2_778
10
5.4239699
20
-2.778092
11
10.7156699
21
-2.778092
0
LINE
8
DEFAULT_255_2_778
10
10.7156699
20
-2.778092
11
9.6572699
21
-1.455192
0
LINE
8
DEFAULT_255_2_778
10
9.6572699
20
-1.455192
11
6.4822699
21
-1.455192
0
LINE
8
DEFAULT_255_2_778
10
6.4822699
20
-1.455192
11
5.4239699
21
-2.778092
0
LINE
8
DEFAULT_255_2_778
10
5.4247699
20
14.419808
11
5.4247699
21
22.357308
0
LINE
8
DEFAULT_255_2_778
10
5.4247699
20
22.357308
11
10.7164699
21
22.357308
0
LINE
8
DEFAULT_255_2_778
10
10.7164699
20
22.357308
11
10.7164699
21
14.419808
0
LINE
8
DEFAULT_255_2_778
10
10.7164699
20
14.419808
11
5.4247699
21
14.419808
0
ARC
8
DEFAULT_255_2_778
10
7.5461973
20
14.4068477
40
2.1214699
50
179.651313
51
189.4995419
0
ARC
8
DEFAULT_255_2_778
10
6.7973863
20
14.2771274
40
1.3615254
50
189.3161539
51
204.7838841
0
ARC
8
DEFAULT_255_2_778
10
6.4553859
20
14.1234173
40
0.9865973
50
205.0053053
51
253.5305431
0
ARC
8
DEFAULT_255_2_778
10
6.6689912
20
14.7275024
40
1.6268022
50
252.3477554
51
265.0365692
0
ARC
8
DEFAULT_255_2_778
10
6.7430208
20
15.4206844
40
2.3238308
50
264.6968603
51
270.1145488
0
ARC
8
DEFAULT_255_2_778
10
9.4063785
20
15.2186057
40
2.1217867
50
269.6513337
51
279.4988298
0
ARC
8
DEFAULT_255_2_778
10
9.5361139
20
14.4696547
40
1.3617016
50
279.3154142
51
294.7822053
0
ARC
8
DEFAULT_255_2_778
10
9.6898899
20
14.127515
40
0.9866194
50
295.0028998
51
343.5286475
0
ARC
8
DEFAULT_255_2_778
10
9.0859087
20
14.3410891
40
1.6267163
50
342.3465561
51
355.0360801
0
ARC
8
DEFAULT_255_2_778
10
8.3928262
20
14.4151124
40
2.3236452
50
354.6964349
51
0.1145573
0
LINE
8
DEFAULT_255_2_778
10
6.7476667
20
13.0968583
11
9.3934667
21
13.0968583
0
LINE
8
DEFAULT_255_2_778
10
10.7164667
20
14.4197583
11
5.4247667
21
14.4197583
0
ARC
8
DEFAULT_255_2_778
10
7.5461973
20
22.3701689
40
2.1214699
50
170.5004581
51
180.348687
0
ARC
8
DEFAULT_255_2_778
10
6.7973863
20
22.4998892
40
1.3615254
50
155.2161159
51
170.6838461
0
ARC
8
DEFAULT_255_2_778
10
6.4553859
20
22.6535994
40
0.9865973
50
106.4694569
51
154.9946947
0
ARC
8
DEFAULT_255_2_778
10
6.6689912
20
22.0495142
40
1.6268022
50
94.9634308
51
107.6522446
0
ARC
8
DEFAULT_255_2_778
10
6.7430208
20
21.3563322
40
2.3238308
50
89.8854512
51
95.3031397
0
ARC
8
DEFAULT_255_2_778
10
9.4063785
20
21.5584109
40
2.1217867
50
80.5011702
51
90.3486663
0
ARC
8
DEFAULT_255_2_778
10
9.5361139
20
22.307362
40
1.3617016
50
65.2177947
51
80.6845858
0
ARC
8
DEFAULT_255_2_778
10
9.6898899
20
22.6495016
40
0.9866194
50
16.4713525
51
64.9971002
0
ARC
8
DEFAULT_255_2_778
10
9.0859087
20
22.4359275
40
1.6267163
50
4.9639199
51
17.6534439
0
ARC
8
DEFAULT_255_2_778
10
8.3928262
20
22.3619042
40
2.3236452
50
359.8854427
51
5.3035651
0
LINE
8
DEFAULT_255_2_778
10
6.7476667
20
23.6801583
11
9.3934667
21
23.6801583
0
LINE
8
DEFAULT_255_2_778
10
10.7164667
20
22.3572583
11
5.4247667
21
22.3572583
0
LINE
8
DEFAULT_255_2_778
10
8.0695
20
13.0968082
11
8.0695
21
3.8364082
0
LINE
8
DEFAULT_255_2_778
10
4.1010002
20
10.4510583
11
19.9760002
21
10.4510583
0
LINE
8
DEFAULT_255_2_778
10
19.9760002
20
10.4510583
11
19.9760002
21
9.1281583
0
LINE
8
DEFAULT_255_2_778
10
19.9760002
20
9.1281583
11
4.1010002
21
9.1281583
0
LINE
8
DEFAULT_255_2_778
10
4.1010002
20
9.1281583
11
4.1010002
21
10.4510583
0
LINE
8
DEFAULT_255_2_778
10
2.7780836
20
9.1281665
11
21.2988836
21
9.1281665
0
LINE
8
DEFAULT_255_2_778
10
13.3608836
20
1.1906665
11
17.3296836
21
1.1906665
0
LINE
8
DEFAULT_255_2_778
10
17.3296836
20
1.1906665
11
17.3296836
21
9.1281665
0
LINE
8
DEFAULT_255_2_778
10
17.3298836
20
10.4510665
11
17.3298836
21
11.7739665
0
LINE
8
DEFAULT_255_2_778
10
16.0075834
20
11.7739
11
18.6533834
21
11.7739
0
ENDSEC
0
EOF