0
SECTION
2
HEADER
9
$MEASUREMENT
70
1
0
ENDSEC
0
SECTION
2
TABLES
0
TABLE
2
LTYPE
0
LTYPE
72
65
70
64
2
CONTINUOUS
3
______
73
0
40
0
0
ENDTAB
0
TABLE
2
LAYER
0
LAYER
2
DEFAULT_255_2_778
70
0
62
255
6
CONTINUOUS
0
ENDTAB
0
ENDSEC
0
SECTION
2
ENTITIES
0
LINE
8
DEFAULT_255_2_778
10
2.7781004
20
13.0968998
11
34.5281004
21
13.0968998
0
LINE
8
DEFAULT_255_2_778
10
34.5281004
20
13.0968998
11
34.5281004
21
-2.7781002
0
LINE
8
DEFAULT_255_2_778
10
34.5281004
20
-2.7781002
11
2.7781004
21
-2.7781002
0
LINE
8
DEFAULT_255_2_778
10
2.7781004
20
-2.7781002
11
2.7781004
21
13.0968998
0
LINE
8
DEFAULT_255_2_778
10
18.6531441
20
13.0968831
11
18.6531441
21
8.7373831
0
LINE
8
DEFAULT_255_2_778
10
18.6531441
20
8.7373831
11
25.5984441
21
5.1916831
0
LINE
8
DEFAULT_255_2_778
10
25.5984441
20
5.1916831
11
6.7468441
21
-0.1323169
0
LINE
8
DEFAULT_255_2_778
10
6.7468441
20
-0.1323169
11
2.7781441
21
-0.1323169
0
LINE
8
DEFAULT_255_2_778
10
2.7781004
20
18.388533
11
2.7781004
21
-2.778167
0
LINE
8
DEFAULT_255_2_778
10
2.7781004
20
-2.778167
11
34.5281004
21
-2.778167
0
LINE
8
DEFAULT_255_2_778
10
34.5281004
20
-2.778167
11
34.5281004
21
18.388533
0
LINE
8
DEFAULT_255_2_778
10
4.1020834
20
15.7427166
11
6.7478834
21
15.7427166
0
LINE
8
DEFAULT_255_2_778
10
6.7478834
20
15.7427166
11
6.7478834
21
13.0969166
0
LINE
8
DEFAULT_255_2_778
10
6.7478834
20
13.0969166
11
4.1020834
21
13.0969166
0
LINE
8
DEFAULT_255_2_778
10
4.1020834
20
13.0969166
11
4.1020834
21
15.7427166
0
LINE
8
DEFAULT_255_2_778
10
30.5593834
20
15.7427166
11
33.2051834
21
15.7427166
0
LINE
8
DEFAULT_255_2_778
10
33.2051834
20
15.7427166
11
33.2051834
21
13.0969166
0
LINE
8
DEFAULT_255_2_778
10
33.2051834
20
13.0969166
11
30.5593834
21
13.0969166
0
LINE
8
DEFAULT_255_2_778
10
30.5593834
20
13.0969166
11
30.5593834
21
15.7427166
0
LINE
8
DEFAULT_255_2_778
10
6.7468503
20
13.0969
11
30.5593503
21
13.0969
0
ENDSEC
0
EOF