0
SECTION
2
HEADER
9
$MEASUREMENT
70
1
0
ENDSEC
0
SECTION
2
TABLES
0
TABLE
2
LTYPE
0
LTYPE
72
65
70
64
2
CONTINUOUS
3
______
73
0
40
0
0
ENDTAB
0
TABLE
2
LAYER
0
LAYER
2
DEFAULT_255_2_778
70
0
62
255
6
CONTINUOUS
0
ENDTAB
0
ENDSEC
0
SECTION
2
ENTITIES
0
LINE
8
DEFAULT_255_2_778
10
10.7156
20
10.4511248
11
10.7156
21
-1.4550752
0
ARC
8
DEFAULT_255_2_778
10
161.8025177
20
640.6638611
40
659.6380147
50
256.7591396
51
256.814122
0
ARC
8
DEFAULT_255_2_778
10
139.6856189
20
546.2627546
40
562.6806729
50
256.8141087
51
256.8714309
0
ARC
8
DEFAULT_255_2_778
10
121.1959427
20
466.9858089
40
481.2761138
50
256.8713936
51
256.9310314
0
ARC
8
DEFAULT_255_2_778
10
102.1322401
20
384.8309056
40
396.9383831
50
256.9299848
51
257.025334
0
ARC
8
DEFAULT_255_2_778
10
83.8020753
20
305.2752846
40
315.2983698
50
257.025396
51
257.1261281
0
ARC
8
DEFAULT_255_2_778
10
68.5488255
20
238.5229363
40
246.8254729
50
257.125439
51
257.2508515
0
ARC
8
DEFAULT_255_2_778
10
55.4119509
20
180.4507025
40
187.2858911
50
257.2500688
51
257.4035069
0
ARC
8
DEFAULT_255_2_778
10
45.231721
20
134.8962233
40
140.6077628
50
257.4037156
51
257.5662363
0
ARC
8
DEFAULT_255_2_778
10
37.9257583
20
101.7617933
40
106.6774293
50
257.5664532
51
257.7374339
0
ARC
8
DEFAULT_255_2_778
10
31.5763191
20
72.5184637
40
76.7527297
50
257.7326002
51
258.0121158
0
ARC
8
DEFAULT_255_2_778
10
26.0385427
20
46.4207592
40
50.0739531
50
258.0079809
51
258.3854374
0
ARC
8
DEFAULT_255_2_778
10
22.3746128
20
28.5971108
40
31.8776121
50
258.3863864
51
258.8028913
0
ARC
8
DEFAULT_255_2_778
10
19.9170952
20
16.1587152
40
19.1987697
50
258.7891356
51
259.4463744
0
ARC
8
DEFAULT_255_2_778
10
18.2130411
20
6.9867088
40
9.8698116
50
259.419222
51
260.4866356
0
ARC
8
DEFAULT_255_2_778
10
17.4100022
20
2.2108612
40
5.0269222
50
260.5168837
51
261.5204468
0
ARC
8
DEFAULT_255_2_778
10
16.9247438
20
-0.8357918
40
1.9422617
50
262.4262727
51
270.0211027
0
ARC
8
DEFAULT_255_2_778
10
16.9220309
20
-0.7393257
40
2.0387304
50
270.0963471
51
293.7481317
0
ARC
8
DEFAULT_255_2_778
10
17.0181302
20
-0.9352355
40
1.8207311
50
293.4628401
51
312.738589
0
ARC
8
DEFAULT_255_2_778
10
17.3647931
20
-1.2998853
40
1.3176664
50
312.4282061
51
336.7967037
0
ARC
8
DEFAULT_255_2_778
10
17.6577234
20
-1.4344847
40
0.9954336
50
337.274392
51
359.7856141
0
ARC
8
DEFAULT_255_2_778
10
161.8025177
20
-643.5571798
40
659.6380147
50
103.185878
51
103.2408604
0
ARC
8
DEFAULT_255_2_778
10
139.6856189
20
-549.1560733
40
562.6806729
50
103.1285691
51
103.1858913
0
ARC
8
DEFAULT_255_2_778
10
121.1959427
20
-469.8791276
40
481.2761138
50
103.0689686
51
103.1286064
0
ARC
8
DEFAULT_255_2_778
10
102.1322401
20
-387.7242243
40
396.9383831
50
102.974666
51
103.0700152
0
ARC
8
DEFAULT_255_2_778
10
83.8020753
20
-308.1686033
40
315.2983698
50
102.8738719
51
102.974604
0
ARC
8
DEFAULT_255_2_778
10
68.5488255
20
-241.416255
40
246.8254729
50
102.7491485
51
102.874561
0
ARC
8
DEFAULT_255_2_778
10
55.4119509
20
-183.3440212
40
187.2858911
50
102.5964931
51
102.7499312
0
ARC
8
DEFAULT_255_2_778
10
45.231721
20
-137.7895419
40
140.6077628
50
102.4337637
51
102.5962844
0
ARC
8
DEFAULT_255_2_778
10
37.9257583
20
-104.655112
40
106.6774293
50
102.2625661
51
102.4335468
0
ARC
8
DEFAULT_255_2_778
10
31.5763191
20
-75.4117824
40
76.7527297
50
101.9878842
51
102.2673998
0
ARC
8
DEFAULT_255_2_778
10
26.0385427
20
-49.3140778
40
50.0739531
50
101.6145626
51
101.9920191
0
ARC
8
DEFAULT_255_2_778
10
22.3746128
20
-31.4904295
40
31.8776121
50
101.1971087
51
101.6136136
0
ARC
8
DEFAULT_255_2_778
10
19.9170952
20
-19.0520339
40
19.1987697
50
100.5536256
51
101.2108644
0
ARC
8
DEFAULT_255_2_778
10
18.2130411
20
-9.8800275
40
9.8698116
50
99.5133644
51
100.580778
0
ARC
8
DEFAULT_255_2_778
10
17.4100022
20
-5.1041799
40
5.0269222
50
98.4795532
51
99.4831163
0
ARC
8
DEFAULT_255_2_778
10
16.9247119
20
-2.0572965
40
1.9420291
50
89.9788429
51
97.5736905
0
ARC
8
DEFAULT_255_2_778
10
16.9219904
20
-2.1539192
40
2.0386546
50
66.2502325
51
89.9033595
0
ARC
8
DEFAULT_255_2_778
10
17.018006
20
-1.9582345
40
1.8208948
50
47.2611993
51
66.5357429
0
ARC
8
DEFAULT_255_2_778
10
17.3647292
20
-1.5935323
40
1.3177506
50
23.2049619
51
47.5718617
0
ARC
8
DEFAULT_255_2_778
10
17.6578632
20
-1.4588408
40
0.9952939
50
0.2148101
51
22.7274969
0
ARC
8
DEFAULT_255_2_778
10
-140.3712175
20
640.6638611
40
659.6380147
50
283.185878
51
283.2408604
0
ARC
8
DEFAULT_255_2_778
10
-118.2543186
20
546.2627546
40
562.6806729
50
283.1285691
51
283.1858913
0
ARC
8
DEFAULT_255_2_778
10
-99.7646425
20
466.9858089
40
481.2761138
50
283.0689686
51
283.1286064
0
ARC
8
DEFAULT_255_2_778
10
-80.7009399
20
384.8309056
40
396.9383831
50
282.974666
51
283.0700152
0
ARC
8
DEFAULT_255_2_778
10
-62.370775
20
305.2752846
40
315.2983698
50
282.8738719
51
282.974604
0
ARC
8
DEFAULT_255_2_778
10
-47.1175253
20
238.5229363
40
246.8254729
50
282.7491485
51
282.874561
0
ARC
8
DEFAULT_255_2_778
10
-33.9806507
20
180.4507025
40
187.2858911
50
282.5964931
51
282.7499312
0
ARC
8
DEFAULT_255_2_778
10
-23.8004208
20
134.8962233
40
140.6077628
50
282.4337637
51
282.5962844
0
ARC
8
DEFAULT_255_2_778
10
-16.4944581
20
101.7617933
40
106.6774293
50
282.2625661
51
282.4335468
0
ARC
8
DEFAULT_255_2_778
10
-10.1450188
20
72.5184637
40
76.7527297
50
281.9878842
51
282.2673998
0
ARC
8
DEFAULT_255_2_778
10
-4.6072425
20
46.4207592
40
50.0739531
50
281.6145626
51
281.9920191
0
ARC
8
DEFAULT_255_2_778
10
-0.9433126
20
28.5971108
40
31.8776121
50
281.1971087
51
281.6136136
0
ARC
8
DEFAULT_255_2_778
10
1.5142051
20
16.1587152
40
19.1987697
50
280.5536256
51
281.2108644
0
ARC
8
DEFAULT_255_2_778
10
3.2182591
20
6.9867088
40
9.8698116
50
279.5133644
51
280.580778
0
ARC
8
DEFAULT_255_2_778
10
4.021298
20
2.2108612
40
5.0269222
50
278.4795532
51
279.4831163
0
ARC
8
DEFAULT_255_2_778
10
4.5065564
20
-0.8357918
40
1.9422617
50
269.9788973
51
277.5737273
0
ARC
8
DEFAULT_255_2_778
10
4.5092693
20
-0.7393257
40
2.0387304
50
246.2518683
51
269.9036529
0
ARC
8
DEFAULT_255_2_778
10
4.41317
20
-0.9352355
40
1.8207311
50
227.261411
51
246.5371599
0
ARC
8
DEFAULT_255_2_778
10
4.0665071
20
-1.2998853
40
1.3176664
50
203.2032963
51
227.5717939
0
ARC
8
DEFAULT_255_2_778
10
3.7735769
20
-1.4344847
40
0.9954336
50
180.2143859
51
202.725608
0
ARC
8
DEFAULT_255_2_778
10
-140.3712175
20
-643.5571798
40
659.6380147
50
76.7591396
51
76.814122
0
ARC
8
DEFAULT_255_2_778
10
-118.2543186
20
-549.1560733
40
562.6806729
50
76.8141087
51
76.8714309
0
ARC
8
DEFAULT_255_2_778
10
-99.7646425
20
-469.8791276
40
481.2761138
50
76.8713936
51
76.9310314
0
ARC
8
DEFAULT_255_2_778
10
-80.7009399
20
-387.7242243
40
396.9383831
50
76.9299848
51
77.025334
0
ARC
8
DEFAULT_255_2_778
10
-62.370775
20
-308.1686033
40
315.2983698
50
77.025396
51
77.1261281
0
ARC
8
DEFAULT_255_2_778
10
-47.1175253
20
-241.416255
40
246.8254729
50
77.125439
51
77.2508515
0
ARC
8
DEFAULT_255_2_778
10
-33.9806507
20
-183.3440212
40
187.2858911
50
77.2500688
51
77.4035069
0
ARC
8
DEFAULT_255_2_778
10
-23.8004208
20
-137.7895419
40
140.6077628
50
77.4037156
51
77.5662363
0
ARC
8
DEFAULT_255_2_778
10
-16.4944581
20
-104.655112
40
106.6774293
50
77.5664532
51
77.7374339
0
ARC
8
DEFAULT_255_2_778
10
-10.1450188
20
-75.4117824
40
76.7527297
50
77.7326002
51
78.0121158
0
ARC
8
DEFAULT_255_2_778
10
-4.6072425
20
-49.3140778
40
50.0739531
50
78.0079809
51
78.3854374
0
ARC
8
DEFAULT_255_2_778
10
-0.9433126
20
-31.4904295
40
31.8776121
50
78.3863864
51
78.8028913
0
ARC
8
DEFAULT_255_2_778
10
1.5142051
20
-19.0520339
40
19.1987697
50
78.7891356
51
79.4463744
0
ARC
8
DEFAULT_255_2_778
10
3.2182591
20
-9.8800275
40
9.8698116
50
79.419222
51
80.4866356
0
ARC
8
DEFAULT_255_2_778
10
4.021298
20
-5.1041799
40
5.0269222
50
80.5168837
51
81.5204468
0
ARC
8
DEFAULT_255_2_778
10
4.5065883
20
-2.0572965
40
1.9420291
50
82.4263095
51
90.0211571
0
ARC
8
DEFAULT_255_2_778
10
4.5093098
20
-2.1539192
40
2.0386546
50
90.0966405
51
113.7497675
0
ARC
8
DEFAULT_255_2_778
10
4.4132942
20
-1.9582345
40
1.8208948
50
113.4642571
51
132.7388007
0
ARC
8
DEFAULT_255_2_778
10
4.066571
20
-1.5935323
40
1.3177506
50
132.4281383
51
156.7950381
0
ARC
8
DEFAULT_255_2_778
10
3.773437
20
-1.4588408
40
0.9952939
50
157.2725031
51
179.7851899
0
ENDSEC
0
EOF