0
SECTION
2
HEADER
9
$MEASUREMENT
70
1
0
ENDSEC
0
SECTION
2
TABLES
0
TABLE
2
LTYPE
0
LTYPE
72
65
70
64
2
CONTINUOUS
3
______
73
0
40
0
0
ENDTAB
0
TABLE
2
LAYER
0
LAYER
2
DEFAULT_255_2_778
70
0
62
255
6
CONTINUOUS
0
ENDTAB
0
ENDSEC
0
SECTION
2
ENTITIES
0
ARC
8
DEFAULT_255_2_778
10
5.4439953
20
1.8103408
40
1.9426609
50
234.0660649
51
269.4092966
0
ARC
8
DEFAULT_255_2_778
10
5.8724706
20
2.4560716
40
2.7171455
50
220.6123109
51
234.7411624
0
ARC
8
DEFAULT_255_2_778
10
6.4891523
20
2.9922943
40
3.5343399
50
209.7135243
51
220.7037801
0
ARC
8
DEFAULT_255_2_778
10
7.2136222
20
3.4112889
40
4.3712356
50
200.5861321
51
209.7765647
0
ARC
8
DEFAULT_255_2_778
10
7.9252478
20
3.6813565
40
5.1323806
50
191.9238987
51
200.6152029
0
ARC
8
DEFAULT_255_2_778
10
8.5310578
20
3.8115954
40
5.7520284
50
183.2805982
51
191.9464196
0
ARC
8
DEFAULT_255_2_778
10
8.8509674
20
3.8357728
40
6.0728001
50
179.9932976
51
183.3356088
0
ARC
8
DEFAULT_255_2_778
10
8.7179202
20
3.8418438
40
5.9397552
50
171.3526342
51
180.0517093
0
ARC
8
DEFAULT_255_2_778
10
8.1760082
20
3.926246
40
5.3913138
50
162.7529719
51
171.3735155
0
ARC
8
DEFAULT_255_2_778
10
7.4812555
20
4.14493
40
4.6629633
50
153.5393571
51
162.7881417
0
ARC
8
DEFAULT_255_2_778
10
6.7365796
20
4.5184157
40
3.8298812
50
143.3946149
51
153.5774265
0
ARC
8
DEFAULT_255_2_778
10
6.0703212
20
5.0183989
40
2.9968972
50
130.7967295
51
143.4725636
0
ARC
8
DEFAULT_255_2_778
10
5.5885455
20
5.5861867
40
2.2522907
50
112.3062356
51
130.9559742
0
ARC
8
DEFAULT_255_2_778
10
5.4269626
20
5.9620355
40
1.84325
50
90.0931043
51
112.0937641
0
ARC
8
DEFAULT_255_2_778
10
53.0289314
20
1.8104216
40
1.9427418
50
270.5909168
51
305.9331665
0
ARC
8
DEFAULT_255_2_778
10
52.6004349
20
2.456211
40
2.7172869
50
305.2579603
51
319.3863725
0
ARC
8
DEFAULT_255_2_778
10
51.9838091
20
2.9924107
40
3.5344241
50
319.2949033
51
330.2850816
0
ARC
8
DEFAULT_255_2_778
10
51.2594264
20
3.4113785
40
4.3712309
50
330.2220472
51
339.4125906
0
ARC
8
DEFAULT_255_2_778
10
50.5479744
20
3.6813968
40
5.1321961
50
339.383542
51
348.0752066
0
ARC
8
DEFAULT_255_2_778
10
49.942365
20
3.8116022
40
5.7516407
50
348.0526938
51
356.7191124
0
ARC
8
DEFAULT_255_2_778
10
49.6225414
20
3.8357727
40
6.072326
50
356.6641312
51
0.0067037
0
ARC
8
DEFAULT_255_2_778
10
49.7555715
20
3.8418428
40
5.9392983
50
359.9482959
51
8.6480454
0
ARC
8
DEFAULT_255_2_778
10
50.2972976
20
3.9262261
40
5.3910435
50
8.6271342
51
17.2481425
0
ARC
8
DEFAULT_255_2_778
10
50.9918604
20
4.1448646
40
4.6628875
50
17.212987
51
26.4620043
0
ARC
8
DEFAULT_255_2_778
10
51.7363941
20
4.5182987
40
3.8299554
50
26.4239767
51
36.6067417
0
ARC
8
DEFAULT_255_2_778
10
52.4025951
20
5.0182622
40
2.9970291
50
36.5288208
51
49.2043487
0
ARC
8
DEFAULT_255_2_778
10
52.8843653
20
5.5860675
40
2.2524129
50
49.0450713
51
67.694182
0
ARC
8
DEFAULT_255_2_778
10
53.0459689
20
5.9619825
40
1.843303
50
67.9065575
51
89.9067976
0
LINE
8
DEFAULT_255_2_778
10
8.0698674
20
-2.7781169
11
8.0698674
21
-0.1322169
0
LINE
8
DEFAULT_255_2_778
10
7.2760674
20
-2.7781169
11
8.8635674
21
-2.7781169
0
LINE
8
DEFAULT_255_2_778
10
10.1864674
20
-0.1322169
11
5.4239674
21
-0.1322169
0
LINE
8
DEFAULT_255_2_778
10
5.4239674
20
7.8052831
11
10.1864674
21
7.8052831
0
LINE
8
DEFAULT_255_2_778
10
8.0698674
20
10.4510831
11
8.0698674
21
7.8052831
0
LINE
8
DEFAULT_255_2_778
10
7.2760674
20
10.4510831
11
8.8635674
21
10.4510831
0
LINE
8
DEFAULT_255_2_778
10
10.1864674
20
9.1281831
11
10.1864674
21
-1.4551169
0
LINE
8
DEFAULT_255_2_778
10
48.2864674
20
-0.1322169
11
53.0489674
21
-0.1322169
0
LINE
8
DEFAULT_255_2_778
10
53.0489674
20
7.8052831
11
48.2864674
21
7.8052831
0
LINE
8
DEFAULT_255_2_778
10
48.2864674
20
9.1281831
11
48.2864674
21
-1.4551169
0
LINE
8
DEFAULT_255_2_778
10
10.7156672
20
9.1282248
11
10.7156672
21
7.8053248
0
LINE
8
DEFAULT_255_2_778
10
10.7156672
20
-1.4550752
11
10.7156672
21
-0.1321752
0
LINE
8
DEFAULT_255_2_778
10
47.7573672
20
-1.4550752
11
47.7573672
21
-0.1321752
0
LINE
8
DEFAULT_255_2_778
10
47.7573672
20
-0.1321752
11
47.7573672
21
7.8053248
0
LINE
8
DEFAULT_255_2_778
10
47.7573672
20
9.1282248
11
47.7573672
21
7.8053248
0
LINE
8
DEFAULT_255_2_778
10
47.7573672
20
7.8053248
11
12.8963672
21
7.8053248
0
LINE
8
DEFAULT_255_2_778
10
12.8963672
20
7.8053248
11
10.7156672
21
7.8053248
0
LINE
8
DEFAULT_255_2_778
10
10.7156672
20
7.8053248
11
10.7156672
21
-0.1321752
0
LINE
8
DEFAULT_255_2_778
10
10.7156672
20
-0.1321752
11
47.7573672
21
-0.1321752
0
LINE
8
DEFAULT_255_2_778
10
13.3614672
20
10.4511248
11
13.3614672
21
7.8053248
0
LINE
8
DEFAULT_255_2_778
10
12.56775
20
10.4511
11
13.36145
21
10.4511
0
LINE
8
DEFAULT_255_2_778
10
14.15525
20
10.4511
11
13.36145
21
10.4511
0
LINE
8
DEFAULT_255_2_778
10
45.1115
20
-2.7780834
11
45.1115
21
-0.1322834
0
LINE
8
DEFAULT_255_2_778
10
44.31775
20
-2.7781
11
45.11145
21
-2.7781
0
LINE
8
DEFAULT_255_2_778
10
45.90525
20
-2.7781
11
45.11145
21
-2.7781
0
ENDSEC
0
EOF