0
SECTION
2
HEADER
9
$MEASUREMENT
70
1
0
ENDSEC
0
SECTION
2
TABLES
0
TABLE
2
LTYPE
0
LTYPE
72
65
70
64
2
CONTINUOUS
3
______
73
0
40
0
0
ENDTAB
0
TABLE
2
LAYER
0
LAYER
2
DEFAULT_255_2_778
70
0
62
255
6
CONTINUOUS
0
ENDTAB
0
ENDSEC
0
SECTION
2
ENTITIES
0
ARC
8
DEFAULT_255_2_778
10
5.4430614
20
1.8103408
40
1.9426609
50
234.0660649
51
269.4092966
0
ARC
8
DEFAULT_255_2_778
10
5.8715366
20
2.4560716
40
2.7171455
50
220.6123109
51
234.7411624
0
ARC
8
DEFAULT_255_2_778
10
6.4882183
20
2.9922943
40
3.5343399
50
209.7135243
51
220.7037801
0
ARC
8
DEFAULT_255_2_778
10
7.2126882
20
3.4112889
40
4.3712356
50
200.5861321
51
209.7765647
0
ARC
8
DEFAULT_255_2_778
10
7.9243138
20
3.6813565
40
5.1323806
50
191.9238987
51
200.6152029
0
ARC
8
DEFAULT_255_2_778
10
8.5301239
20
3.8115954
40
5.7520284
50
183.2805982
51
191.9464196
0
ARC
8
DEFAULT_255_2_778
10
8.8500335
20
3.8357728
40
6.0728001
50
179.9932976
51
183.3356088
0
ARC
8
DEFAULT_255_2_778
10
8.7169862
20
3.8418438
40
5.9397552
50
171.3526342
51
180.0517093
0
ARC
8
DEFAULT_255_2_778
10
8.1750743
20
3.926246
40
5.3913138
50
162.7529719
51
171.3735155
0
ARC
8
DEFAULT_255_2_778
10
7.4803215
20
4.14493
40
4.6629633
50
153.5393571
51
162.7881417
0
ARC
8
DEFAULT_255_2_778
10
6.7356456
20
4.5184157
40
3.8298812
50
143.3946149
51
153.5774265
0
ARC
8
DEFAULT_255_2_778
10
6.0693872
20
5.0183989
40
2.9968972
50
130.7967295
51
143.4725636
0
ARC
8
DEFAULT_255_2_778
10
5.5876115
20
5.5861867
40
2.2522907
50
112.3062356
51
130.9559742
0
ARC
8
DEFAULT_255_2_778
10
5.4260287
20
5.9620355
40
1.84325
50
90.0931043
51
112.0937641
0
LINE
8
DEFAULT_255_2_778
10
8.0689334
20
-2.7781169
11
8.0689334
21
-0.1322169
0
LINE
8
DEFAULT_255_2_778
10
7.2751334
20
-2.7781169
11
8.8626334
21
-2.7781169
0
LINE
8
DEFAULT_255_2_778
10
10.1855334
20
-0.1322169
11
5.4230334
21
-0.1322169
0
LINE
8
DEFAULT_255_2_778
10
5.4230334
20
7.8052831
11
10.1855334
21
7.8052831
0
LINE
8
DEFAULT_255_2_778
10
8.0689334
20
10.4510831
11
8.0689334
21
7.8052831
0
LINE
8
DEFAULT_255_2_778
10
7.2751334
20
10.4510831
11
8.8626334
21
10.4510831
0
LINE
8
DEFAULT_255_2_778
10
10.1855334
20
9.1281831
11
10.1855334
21
-1.4551169
0
LINE
8
DEFAULT_255_2_778
10
50.4037612
20
-0.1322834
11
50.4037612
21
-2.7780834
0
LINE
8
DEFAULT_255_2_778
10
51.1922612
20
-2.7780834
11
50.4022612
21
-2.7780834
0
LINE
8
DEFAULT_255_2_778
10
49.6137612
20
-2.7780834
11
50.4037612
21
-2.7780834
0
ARC
8
DEFAULT_255_2_778
10
50.2776429
20
11.7898408
40
3.9535565
50
58.3597998
51
88.1671716
0
ARC
8
DEFAULT_255_2_778
10
49.7477787
20
10.8548078
40
5.0277177
50
47.5097882
51
58.8087843
0
ARC
8
DEFAULT_255_2_778
10
49.0439547
20
10.0795699
40
6.0747823
50
38.6060465
51
47.553653
0
ARC
8
DEFAULT_255_2_778
10
48.1505935
20
9.3627208
40
7.2201907
50
30.7914562
51
38.6279605
0
ARC
8
DEFAULT_255_2_778
10
47.1483344
20
8.7617625
40
8.3888076
50
23.8575612
51
30.8131328
0
ARC
8
DEFAULT_255_2_778
10
46.1523608
20
8.3182035
40
9.4790831
50
17.539045
51
23.8746237
0
ARC
8
DEFAULT_255_2_778
10
45.2319725
20
8.0256355
40
10.4448513
50
11.3466509
51
17.5478373
0
ARC
8
DEFAULT_255_2_778
10
44.424848
20
7.8624823
40
11.2683
50
4.998298
51
11.352585
0
ARC
8
DEFAULT_255_2_778
10
43.8378356
20
7.8076738
40
11.857856
50
359.9845423
51
5.0149965
0
ARC
8
DEFAULT_255_2_778
10
43.8971394
20
7.7993249
40
11.798553
50
353.7145346
51
0.0250082
0
ARC
8
DEFAULT_255_2_778
10
44.5678837
20
7.7241725
40
11.123613
50
347.50543
51
353.7210563
0
ARC
8
DEFAULT_255_2_778
10
45.4122281
20
7.5349908
40
10.2583369
50
341.0533636
51
347.5167668
0
ARC
8
DEFAULT_255_2_778
10
46.3909689
20
7.1971473
40
9.2229297
50
334.3827848
51
341.0642649
0
ARC
8
DEFAULT_255_2_778
10
47.4136599
20
6.7045852
40
8.0878043
50
327.2471788
51
334.396792
0
ARC
8
DEFAULT_255_2_778
10
48.3939831
20
6.071014
40
6.9205687
50
319.2429609
51
327.267635
0
ARC
8
DEFAULT_255_2_778
10
49.2480655
20
5.3307988
40
5.7903634
50
309.7422124
51
319.2737501
0
ARC
8
DEFAULT_255_2_778
10
49.9035529
20
4.5348324
40
4.7592487
50
297.1686214
51
309.8007907
0
ARC
8
DEFAULT_255_2_778
10
50.2900067
20
3.7533798
40
3.8875795
50
271.681638
51
297.3602851
0
LINE
8
DEFAULT_255_2_778
10
10.7146913
20
7.8052747
11
10.7165913
21
7.8052747
0
LINE
8
DEFAULT_255_2_778
10
10.7165913
20
9.1281747
11
10.7165913
21
7.8052747
0
LINE
8
DEFAULT_255_2_778
10
10.7165913
20
-1.4551253
11
10.7165913
21
-0.1322253
0
LINE
8
DEFAULT_255_2_778
10
10.7165913
20
-0.1322253
11
10.7165913
21
7.8052747
0
LINE
8
DEFAULT_255_2_778
10
10.7165913
20
7.8052747
11
16.0081913
21
7.8052747
0
LINE
8
DEFAULT_255_2_778
10
16.0081913
20
7.8052747
11
29.2373913
21
15.7427747
0
LINE
8
DEFAULT_255_2_778
10
29.2373913
20
15.7427747
11
50.4040913
21
15.7413747
0
LINE
8
DEFAULT_255_2_778
10
50.4040913
20
-0.1325253
11
10.7165913
21
-0.1325253
0
LINE
8
DEFAULT_255_2_778
10
31.8813913
20
18.3885747
11
31.8813913
21
15.7427747
0
LINE
8
DEFAULT_255_2_778
10
31.08765
20
18.3886
11
31.88135
21
18.3886
0
LINE
8
DEFAULT_255_2_778
10
32.67515
20
18.3886
11
31.88135
21
18.3886
0
ENDSEC
0
EOF