0
SECTION
2
HEADER
9
$MEASUREMENT
70
1
0
ENDSEC
0
SECTION
2
TABLES
0
TABLE
2
LTYPE
0
LTYPE
72
65
70
64
2
CONTINUOUS
3
______
73
0
40
0
0
ENDTAB
0
TABLE
2
LAYER
0
LAYER
2
DEFAULT_255_2_778
70
0
62
255
6
CONTINUOUS
0
LAYER
2
DEFAULT_255_2_778_3
70
0
62
255
6
CONTINUOUS
0
ENDTAB
0
ENDSEC
0
SECTION
2
ENTITIES
0
LINE
8
DEFAULT_255_2_778
10
10.7156337
20
15.7427166
11
37.1739337
21
15.7427166
0
LINE
8
DEFAULT_255_2_778
10
37.1739337
20
15.7427166
11
37.1739337
21
13.0969166
0
LINE
8
DEFAULT_255_2_778
10
37.1739337
20
13.0969166
11
10.7156337
21
13.0969166
0
LINE
8
DEFAULT_255_2_778
10
10.7156337
20
13.0969166
11
10.7156337
21
15.7427166
0
LINE
8
DEFAULT_255_2_778
10
10.7156337
20
2.5136166
11
37.1739337
21
2.5136166
0
LINE
8
DEFAULT_255_2_778
10
37.1739337
20
2.5136166
11
37.1739337
21
-0.1321834
0
LINE
8
DEFAULT_255_2_778
10
37.1739337
20
-0.1321834
11
10.7156337
21
-0.1321834
0
LINE
8
DEFAULT_255_2_778
10
10.7156337
20
-0.1321834
11
10.7156337
21
2.5136166
0
LINE
8
DEFAULT_255_2_778
10
34.526
20
13.0968749
11
34.526
21
9.1281749
0
ARC
8
DEFAULT_255_2_778
10
10.7053065
20
14.5291038
40
13.3385242
50
266.1604357
51
270.0418536
0
ARC
8
DEFAULT_255_2_778
10
10.5969176
20
12.9195294
40
11.7253044
50
261.9763269
51
266.162214
0
ARC
8
DEFAULT_255_2_778
10
10.3991142
20
11.5240384
40
10.3158649
50
257.2440824
51
261.9823322
0
ARC
8
DEFAULT_255_2_778
10
10.1214627
20
10.3039654
40
9.0645991
50
251.7357799
51
257.2529886
0
ARC
8
DEFAULT_255_2_778
10
9.7785452
20
9.2689007
40
7.9742093
50
245.2815815
51
251.7447834
0
ARC
8
DEFAULT_255_2_778
10
9.3962216
20
8.4409921
40
7.0622868
50
237.5786407
51
245.290467
0
ARC
8
DEFAULT_255_2_778
10
9.0198699
20
7.8487957
40
6.3606194
50
228.3639037
51
237.5803343
0
ARC
8
DEFAULT_255_2_778
10
8.7135354
20
7.5046261
40
5.8998662
50
214.7337539
51
228.36665
0
ARC
8
DEFAULT_255_2_778
10
8.8562449
20
7.572245
40
6.0557278
50
191.0085968
51
214.490208
0
ARC
8
DEFAULT_255_2_778
10
9.8224849
20
7.7844149
40
7.0447429
50
180.5571047
51
191.2018081
0
ARC
8
DEFAULT_255_2_778
10
10.3518014
20
7.8050957
40
7.5742513
50
179.9993381
51
180.6746059
0
ARC
8
DEFAULT_255_2_778
10
9.9030993
20
7.8187904
40
7.1255622
50
169.9647073
51
180.1094147
0
ARC
8
DEFAULT_255_2_778
10
9.0061424
20
7.9878422
40
6.2128785
50
152.8993832
51
170.0584622
0
ARC
8
DEFAULT_255_2_778
10
8.6672141
20
8.1434724
40
5.8402854
50
134.9868299
51
152.7438184
0
ARC
8
DEFAULT_255_2_778
10
8.922358
20
7.8853679
40
6.2032077
50
124.6468983
51
134.9682641
0
ARC
8
DEFAULT_255_2_778
10
9.2952419
20
7.3473488
40
6.8578114
50
116.5869987
51
124.6543152
0
ARC
8
DEFAULT_255_2_778
10
9.6786024
20
6.5842268
40
7.7118133
50
109.9261549
51
116.5965265
0
ARC
8
DEFAULT_255_2_778
10
10.0269305
20
5.6283428
40
8.7291845
50
104.366766
51
109.9373193
0
ARC
8
DEFAULT_255_2_778
10
10.3186697
20
4.493896
40
9.9005428
50
99.4986212
51
104.3732918
0
ARC
8
DEFAULT_255_2_778
10
10.5421467
20
3.163529
40
11.2495489
50
95.1301633
51
99.503056
0
ARC
8
DEFAULT_255_2_778
10
10.6808471
20
1.629881
40
12.7894556
50
91.2068991
51
95.1346794
0
ARC
8
DEFAULT_255_2_778
10
10.7139576
20
0.4868972
40
13.9328861
50
89.9955075
51
91.2440279
0
LINE
8
DEFAULT_255_2_778
10
13.3604
20
15.7428166
11
13.3604
21
18.3886166
0
LINE
8
DEFAULT_255_2_778
10
14.6837834
20
18.3886
11
12.0379834
21
18.3886
0
LINE
8
DEFAULT_255_2_778_3
10
10.7156337
20
14.4198
11
37.1739337
21
14.4198
0
LINE
8
DEFAULT_255_2_778
10
39.8193
20
15.7427166
11
39.8193
21
13.0969166
0
LINE
8
DEFAULT_255_2_778_3
10
10.7156337
20
1.1907
11
37.1739337
21
1.1907
0
LINE
8
DEFAULT_255_2_778
10
39.8193
20
2.5136166
11
39.8193
21
-0.1321834
0
LINE
8
DEFAULT_255_2_778
10
13.3604
20
-0.1322834
11
13.3604
21
-2.7780834
0
LINE
8
DEFAULT_255_2_778
10
12.0379834
20
-2.7781
11
14.6837834
21
-2.7781
0
LINE
8
DEFAULT_255_2_778
10
33.2035834
20
9.1282
11
35.8493834
21
9.1282
0
LINE
8
DEFAULT_255_2_778
10
33.2035834
20
6.4823
11
35.8493834
21
6.4823
0
LINE
8
DEFAULT_255_2_778
10
34.526
20
6.4823749
11
34.526
21
2.5136749
0
LINE
8
DEFAULT_255_2_778
10
37.1744834
20
14.4198
11
39.8202834
21
14.4198
0
LINE
8
DEFAULT_255_2_778
10
39.8202834
20
1.1907
11
37.1744834
21
1.1907
0
ENDSEC
0
EOF