0
SECTION
2
HEADER
9
$MEASUREMENT
70
1
0
ENDSEC
0
SECTION
2
TABLES
0
TABLE
2
LTYPE
0
LTYPE
72
65
70
64
2
CONTINUOUS
3
______
73
0
40
0
0
ENDTAB
0
TABLE
2
LAYER
0
LAYER
2
DEFAULT_255_2_778
70
0
62
255
6
CONTINUOUS
0
ENDTAB
0
ENDSEC
0
SECTION
2
ENTITIES
0
LINE
8
DEFAULT_255_2_778
10
2.7781004
20
14.4198581
11
34.5281004
21
14.4198581
0
LINE
8
DEFAULT_255_2_778
10
34.5281004
20
14.4198581
11
34.5281004
21
-2.7780419
0
LINE
8
DEFAULT_255_2_778
10
34.5281004
20
-2.7780419
11
2.7781004
21
-2.7780419
0
LINE
8
DEFAULT_255_2_778
10
2.7781004
20
-2.7780419
11
2.7781004
21
14.4198581
0
LINE
8
DEFAULT_255_2_778
10
34.5281004
20
14.4198
11
2.7781004
21
14.4198
0
ARC
8
DEFAULT_255_2_778
10
33.4037821
20
14.4081405
40
1.1243795
50
0.5979691
51
28.9007231
0
ARC
8
DEFAULT_255_2_778
10
32.8638398
20
14.1256411
40
1.7336604
50
28.4501245
51
41.6396127
0
ARC
8
DEFAULT_255_2_778
10
32.1643957
20
13.5129068
40
2.6635179
50
41.4928929
51
50.3401972
0
ARC
8
DEFAULT_255_2_778
10
31.3249443
20
12.5094335
40
3.9718049
50
50.2564574
51
56.6696057
0
ARC
8
DEFAULT_255_2_778
10
30.3881732
20
11.0955243
40
5.6678755
50
56.6110544
51
61.3598723
0
ARC
8
DEFAULT_255_2_778
10
29.3700608
20
9.2380881
40
7.7860386
50
61.3358658
51
65.2049966
0
ARC
8
DEFAULT_255_2_778
10
28.2731304
20
6.8716474
40
10.3943502
50
65.186323
51
68.3749986
0
ARC
8
DEFAULT_255_2_778
10
27.1716482
20
4.1059783
40
13.3712901
50
68.3547629
51
70.8725255
0
ARC
8
DEFAULT_255_2_778
10
26.1320239
20
1.1195388
40
16.5335089
50
70.8598452
51
72.9034404
0
ARC
8
DEFAULT_255_2_778
10
25.056962
20
-2.3811949
40
20.1955974
50
72.9079807
51
75.0002516
0
ARC
8
DEFAULT_255_2_778
10
23.9138411
20
-6.6431653
40
24.6082062
50
74.9976665
51
76.9406975
0
ARC
8
DEFAULT_255_2_778
10
22.8506834
20
-11.2095759
40
29.2967453
50
76.9331928
51
78.5770451
0
ARC
8
DEFAULT_255_2_778
10
21.8917271
20
-15.9515877
40
34.1347482
50
78.575693
51
80.1484353
0
ARC
8
DEFAULT_255_2_778
10
21.0282766
20
-20.9138244
40
39.1715465
50
80.1459515
51
81.611363
0
ARC
8
DEFAULT_255_2_778
10
20.272419
20
-26.0391432
40
44.3523008
50
81.6112927
51
83.094142
0
ARC
8
DEFAULT_255_2_778
10
19.6535462
20
-31.1329999
40
49.4836141
50
83.091935
51
84.4971904
0
ARC
8
DEFAULT_255_2_778
10
19.1878399
20
-35.9622118
40
54.3352292
50
84.4967002
51
85.9395726
0
ARC
8
DEFAULT_255_2_778
10
18.8762401
20
-40.3289756
40
58.7130961
50
85.937998
51
87.3664668
0
ARC
8
DEFAULT_255_2_778
10
18.7144281
20
-43.7914069
40
62.1793055
50
87.3641166
51
88.692686
0
ARC
8
DEFAULT_255_2_778
10
18.6566776
20
-46.2542023
40
64.6427774
50
88.6913149
51
90.0031706
0
ARC
8
DEFAULT_255_2_778
10
18.6486686
20
-46.1483031
40
64.5368782
50
89.9960655
51
91.4412188
0
ARC
8
DEFAULT_255_2_778
10
18.5794648
20
-43.4421113
40
61.8298019
50
91.4401832
51
92.8148668
0
ARC
8
DEFAULT_255_2_778
10
18.4079922
20
-39.9710811
40
58.3545389
50
92.8140743
51
94.137772
0
ARC
8
DEFAULT_255_2_778
10
18.1178135
20
-35.968443
40
54.3413963
50
94.1371267
51
95.4257762
0
ARC
8
DEFAULT_255_2_778
10
17.7071794
20
-31.6495773
40
50.0030529
50
95.4252963
51
96.6922149
0
ARC
8
DEFAULT_255_2_778
10
17.1853693
20
-27.204951
40
45.5279006
50
96.6918415
51
97.9483014
0
ARC
8
DEFAULT_255_2_778
10
16.5688354
20
-22.7907351
40
41.070837
50
97.948001
51
99.2037059
0
ARC
8
DEFAULT_255_2_778
10
15.7894483
20
-18.0091191
40
36.2261211
50
99.1964978
51
100.7903925
0
ARC
8
DEFAULT_255_2_778
10
14.8426896
20
-13.0425131
40
31.1700824
50
100.7900475
51
102.4101206
0
ARC
8
DEFAULT_255_2_778
10
13.8106635
20
-8.3633855
40
26.3784955
50
102.4050579
51
104.2391782
0
ARC
8
DEFAULT_255_2_778
10
12.6781709
20
-3.9097349
40
21.7831133
50
104.233302
51
106.3115183
0
ARC
8
DEFAULT_255_2_778
10
11.5373444
20
-0.0112371
40
17.7211224
50
106.3115953
51
108.4758115
0
ARC
8
DEFAULT_255_2_778
10
10.3918654
20
3.4058987
40
14.1171076
50
108.4614716
51
111.1310536
0
ARC
8
DEFAULT_255_2_778
10
9.2230298
20
6.4237742
40
10.8807913
50
111.1189966
51
114.2622006
0
ARC
8
DEFAULT_255_2_778
10
8.1472175
20
8.8099448
40
8.263315
50
114.2602436
51
117.7019026
0
ARC
8
DEFAULT_255_2_778
10
7.1371296
20
10.7242275
40
6.0988912
50
117.6604317
51
122.2956856
0
ARC
8
DEFAULT_255_2_778
10
6.1712381
20
12.2465164
40
4.2960335
50
122.253962
51
128.2233311
0
ARC
8
DEFAULT_255_2_778
10
5.3119092
20
13.3312943
40
2.9121381
50
128.1463984
51
136.3320487
0
ARC
8
DEFAULT_255_2_778
10
4.5855605
20
14.0191862
40
1.911761
50
136.2140054
51
147.9872188
0
ARC
8
DEFAULT_255_2_778
10
4.0134329
20
14.3690605
40
1.2411833
50
147.6815876
51
168.9513804
0
ARC
8
DEFAULT_255_2_778
10
3.8105835
20
14.4194934
40
1.0324831
50
169.540929
51
179.9788254
0
LINE
8
DEFAULT_255_2_778
10
31.8822337
20
14.4198415
11
31.8822337
21
-0.1322585
0
LINE
8
DEFAULT_255_2_778
10
31.8822337
20
-0.1322585
11
5.4239337
21
-0.1322585
0
LINE
8
DEFAULT_255_2_778
10
5.4239337
20
-0.1322585
11
5.4239337
21
14.4198415
0
ENDSEC
0
EOF