0
SECTION
2
HEADER
9
$MEASUREMENT
70
1
0
ENDSEC
0
SECTION
2
TABLES
0
TABLE
2
LTYPE
0
LTYPE
72
65
70
64
2
CONTINUOUS
3
______
73
0
40
0
0
ENDTAB
0
TABLE
2
LAYER
0
LAYER
2
DEFAULT_255_2_778
70
0
62
255
6
CONTINUOUS
0
LAYER
2
DEFAULT_255_2_778_2
70
0
62
255
6
CONTINUOUS
0
ENDTAB
0
ENDSEC
0
SECTION
2
ENTITIES
0
ARC
8
DEFAULT_255_2_778
10
13.5512442
20
40.9165369
40
2.4561445
50
0.4382096
51
30.8036952
0
ARC
8
DEFAULT_255_2_778
10
12.7874439
20
40.4940963
40
3.3286445
50
30.3166452
51
42.6435878
0
ARC
8
DEFAULT_255_2_778
10
12.0469725
20
39.8195197
40
4.3303076
50
42.5719339
51
51.8526151
0
ARC
8
DEFAULT_255_2_778
10
11.3171267
20
38.8965751
40
5.506951
50
51.8122658
51
59.4704431
0
ARC
8
DEFAULT_255_2_778
10
10.6630778
20
37.7946908
40
6.7883245
50
59.439737
51
65.9972767
0
ARC
8
DEFAULT_255_2_778
10
10.1361039
20
36.6186424
40
8.0770386
50
65.9759149
51
71.8355618
0
ARC
8
DEFAULT_255_2_778
10
9.7501211
20
35.4472376
40
9.3103955
50
71.8259138
51
77.5338356
0
ARC
8
DEFAULT_255_2_778
10
9.5120435
20
34.3800581
40
10.4038072
50
77.5222706
51
83.100666
0
ARC
8
DEFAULT_255_2_778
10
9.4071302
20
33.5286553
40
11.2616477
50
83.0911085
51
88.7355791
0
ARC
8
DEFAULT_255_2_778
10
9.3929561
20
33.1367176
40
11.653804
50
88.7084304
51
90.0011763
0
ARC
8
DEFAULT_255_2_778
10
9.3872775
20
33.384121
40
11.4064021
50
89.9726775
51
95.8278681
0
ARC
8
DEFAULT_255_2_778
10
9.3048578
20
34.1822767
40
10.6040028
50
95.8227416
51
101.2321439
0
ARC
8
DEFAULT_255_2_778
10
9.0988647
20
35.2060014
40
9.5597626
50
101.2163113
51
106.9965766
0
ARC
8
DEFAULT_255_2_778
10
8.732434
20
36.3982435
40
8.3124821
50
106.983369
51
113.0138306
0
ARC
8
DEFAULT_255_2_778
10
8.2132959
20
37.6149608
40
6.9896444
50
112.9962852
51
119.5533716
0
ARC
8
DEFAULT_255_2_778
10
7.5721187
20
38.741181
40
5.6936992
50
119.5305514
51
126.9318357
0
ARC
8
DEFAULT_255_2_778
10
6.864341
20
39.6789772
40
4.5187933
50
126.9029987
51
135.5673516
0
ARC
8
DEFAULT_255_2_778
10
6.1321349
20
40.3904289
40
3.4978807
50
135.4925486
51
147.0857688
0
ARC
8
DEFAULT_255_2_778
10
5.4211857
20
40.8411611
40
2.6561412
50
146.9146051
51
165.9804735
0
ARC
8
DEFAULT_255_2_778
10
5.1007709
20
40.9346722
40
2.3226541
50
166.3037374
51
179.9839748
0
ARC
8
DEFAULT_255_2_778
10
5.2589857
20
2.4763709
40
2.4809426
50
180.4416623
51
210.9393485
0
ARC
8
DEFAULT_255_2_778
10
6.0275547
20
2.903015
40
3.3596312
50
210.4412415
51
222.6790378
0
ARC
8
DEFAULT_255_2_778
10
6.7642068
20
3.5750207
40
4.35674
50
222.6088627
51
231.8431759
0
ARC
8
DEFAULT_255_2_778
10
7.4883366
20
4.4905046
40
5.523986
50
231.8037719
51
239.4396796
0
ARC
8
DEFAULT_255_2_778
10
8.1426705
20
5.5926858
40
6.8057615
50
239.414048
51
246.0977075
0
ARC
8
DEFAULT_255_2_778
10
8.6661732
20
6.7647946
40
8.0894602
50
246.0715511
51
251.8938581
0
ARC
8
DEFAULT_255_2_778
10
9.0475423
20
7.9279498
40
9.3135401
50
251.8876988
51
257.7144586
0
ARC
8
DEFAULT_255_2_778
10
9.2790598
20
8.9780966
40
10.3889012
50
257.6992293
51
263.1934545
0
ARC
8
DEFAULT_255_2_778
10
9.3800279
20
9.812957
40
11.2298441
50
263.1867661
51
268.9662188
0
ARC
8
DEFAULT_255_2_778
10
9.3925774
20
10.1919429
40
11.6089962
50
268.9380377
51
270.0006881
0
ARC
8
DEFAULT_255_2_778
10
9.3981423
20
9.9337705
40
11.350825
50
269.972614
51
275.8565733
0
ARC
8
DEFAULT_255_2_778
10
9.4802508
20
9.1424648
40
10.5552713
50
275.851491
51
281.286479
0
ARC
8
DEFAULT_255_2_778
10
9.6854938
20
8.1276667
40
9.5199298
50
281.2704531
51
287.0877016
0
ARC
8
DEFAULT_255_2_778
10
10.050559
20
6.9464275
40
8.2835664
50
287.0748347
51
293.1274962
0
ARC
8
DEFAULT_255_2_778
10
10.5671545
20
5.7422847
40
6.9732895
50
293.1101028
51
299.6864218
0
ARC
8
DEFAULT_255_2_778
10
11.2050238
20
4.6278905
40
5.6892546
50
299.6638486
51
307.0791654
0
ARC
8
DEFAULT_255_2_778
10
11.9215274
20
3.6851344
40
4.5051289
50
307.0381589
51
316.043915
0
ARC
8
DEFAULT_255_2_778
10
12.6569675
20
2.9807141
40
3.4867648
50
315.9883471
51
327.5100521
0
ARC
8
DEFAULT_255_2_778
10
13.3653326
20
2.5405553
40
2.6528529
50
327.3106657
51
347.18952
0
ARC
8
DEFAULT_255_2_778
10
13.6658474
20
2.4576057
40
2.3414694
50
347.5382862
51
359.9912189
0
LINE
8
DEFAULT_255_2_778
10
16.0073169
20
2.4570911
11
2.7781169
21
2.4570911
0
LINE
8
DEFAULT_255_2_778
10
2.7781169
20
2.4570911
11
2.7781169
21
40.8216911
0
LINE
8
DEFAULT_255_2_778
10
2.7781169
20
40.8216911
11
16.0073169
21
40.8216911
0
LINE
8
DEFAULT_255_2_778
10
16.0073169
20
40.8216911
11
16.0073169
21
2.4570911
0
LINE
8
DEFAULT_255_2_778
10
16.0073169
20
3.8340937
11
16.0073169
21
-2.7969063
0
LINE
8
DEFAULT_255_2_778
10
16.0073169
20
-2.7969063
11
2.7781169
21
-2.7969063
0
LINE
8
DEFAULT_255_2_778
10
2.7781169
20
-2.7969063
11
2.7781169
21
3.8340937
0
LINE
8
DEFAULT_255_2_778_2
10
16.0072335
20
36.853
11
5.4239335
21
36.853
0
LINE
8
DEFAULT_255_2_778_2
10
5.424
20
37.6808739
11
5.424
21
36.0063739
0
LINE
8
DEFAULT_255_2_778_2
10
13.3614501
20
20.978
11
5.4239501
21
20.978
0
LINE
8
DEFAULT_255_2_778_2
10
2.7781335
20
34.2072
11
13.3614335
21
34.2072
0
LINE
8
DEFAULT_255_2_778_2
10
13.3615
20
33.3037833
11
13.3615
21
35.1029833
0
LINE
8
DEFAULT_255_2_778_2
10
16.0073667
20
27.6004896
11
10.7156667
21
27.6004896
0
LINE
8
DEFAULT_255_2_778_2
10
10.7156667
20
27.6004896
11
10.7156667
21
28.9154896
0
LINE
8
DEFAULT_255_2_778_2
10
2.7781667
20
27.5925583
11
8.0698667
21
27.5925583
0
LINE
8
DEFAULT_255_2_778_2
10
8.0698667
20
27.5925583
11
8.0698667
21
28.9154583
0
LINE
8
DEFAULT_255_2_778_2
10
16.0072751
20
24.9467
11
10.4510751
21
24.9467
0
LINE
8
DEFAULT_255_2_778_2
10
10.7156
20
26.2267687
11
10.7156
21
24.9488687
0
LINE
8
DEFAULT_255_2_778_2
10
2.7781667
20
24.9467
11
8.0698667
21
24.9467
0
LINE
8
DEFAULT_255_2_778_2
10
8.0698
20
26.2882187
11
8.0698
21
24.9468187
0
LINE
8
DEFAULT_255_2_778_2
10
13.3615
20
21.8264698
11
13.3615
21
20.1085698
0
LINE
8
DEFAULT_255_2_778_2
10
5.424
20
21.8264698
11
5.424
21
20.1085698
0
LINE
8
DEFAULT_255_2_778_2
10
16.0073126
20
18.3322
11
10.8479126
21
18.3322
0
LINE
8
DEFAULT_255_2_778_2
10
10.7156
20
19.2581958
11
10.7156
21
17.5383958
0
LINE
8
DEFAULT_255_2_778_2
10
2.7781667
20
18.3322
11
8.0698667
21
18.3322
0
LINE
8
DEFAULT_255_2_778_2
10
8.0698
20
19.1920229
11
8.0698
21
17.5384229
0
LINE
8
DEFAULT_255_2_778_2
10
13.3614501
20
15.6863
11
5.4239501
21
15.6863
0
LINE
8
DEFAULT_255_2_778_2
10
13.3615
20
16.557576
11
13.3615
21
14.790376
0
LINE
8
DEFAULT_255_2_778_2
10
5.424
20
16.4933344
11
5.424
21
14.8510344
0
LINE
8
DEFAULT_255_2_778_2
10
2.7781169
20
13.0405166
11
10.7156169
21
13.0405166
0
LINE
8
DEFAULT_255_2_778_2
10
10.7156169
20
13.0405166
11
10.7156169
21
10.3947166
0
LINE
8
DEFAULT_255_2_778_2
10
10.7156169
20
10.3947166
11
16.0073169
21
10.3947166
0
LINE
8
DEFAULT_255_2_778_2
10
16.0073169
20
9.0717
11
2.7781169
21
9.0717
0
LINE
8
DEFAULT_255_2_778_2
10
16.0073169
20
7.7488
11
2.7781169
21
7.7488
0
LINE
8
DEFAULT_255_2_778_2
10
16.0073169
20
6.4259
11
2.7781169
21
6.4259
0
LINE
8
DEFAULT_255_2_778_2
10
5.4239335
20
31.5613
11
16.0072335
21
31.5613
0
LINE
8
DEFAULT_255_2_778_2
10
5.424
20
30.7335833
11
5.424
21
32.5327833
0
ENDSEC
0
EOF