0
SECTION
2
HEADER
9
$MEASUREMENT
70
1
0
ENDSEC
0
SECTION
2
TABLES
0
TABLE
2
LTYPE
0
LTYPE
72
65
70
64
2
CONTINUOUS
3
______
73
0
40
0
0
ENDTAB
0
TABLE
2
LAYER
0
LAYER
2
DEFAULT_255_2_778
70
0
62
255
6
CONTINUOUS
0
ENDTAB
0
ENDSEC
0
SECTION
2
ENTITIES
0
LINE
8
DEFAULT_255_2_778
10
6.7468834
20
0.5292166
11
6.7468834
21
3.1750166
0
LINE
8
DEFAULT_255_2_778
10
6.7468834
20
3.1750166
11
9.3926834
21
1.8521166
0
LINE
8
DEFAULT_255_2_778
10
9.3926834
20
1.8521166
11
6.7468834
21
0.5292166
0
LINE
8
DEFAULT_255_2_778
10
9.3927
20
-3.4394834
11
9.3927
21
-0.7936834
0
LINE
8
DEFAULT_255_2_778
10
10.7155834
20
-0.7936834
11
8.0697834
21
-0.7936834
0
LINE
8
DEFAULT_255_2_778
10
8.0697834
20
-0.7936834
11
9.3926834
21
1.8521166
0
LINE
8
DEFAULT_255_2_778
10
9.3926834
20
1.8521166
11
10.7155834
21
-0.7936834
0
LINE
8
DEFAULT_255_2_778
10
2.7781251
20
1.8521
11
6.7468251
21
1.8521
0
LINE
8
DEFAULT_255_2_778
10
12.0384834
20
0.5292166
11
12.0384834
21
3.1750166
0
LINE
8
DEFAULT_255_2_778
10
12.0384834
20
3.1750166
11
9.3926834
21
1.8521166
0
LINE
8
DEFAULT_255_2_778
10
9.3926834
20
1.8521166
11
12.0384834
21
0.5292166
0
LINE
8
DEFAULT_255_2_778
10
12.0385251
20
1.8521
11
16.0072251
21
1.8521
0
ARC
8
DEFAULT_255_2_778
10
9.3912557
20
1.8535443
40
0.6600157
50
89.871003
51
180.128997
0
ARC
8
DEFAULT_255_2_778
10
9.394149
20
1.8535655
40
0.6599943
50
359.8691577
51
90.1221758
0
ARC
8
DEFAULT_255_2_778
10
9.3941705
20
1.8506295
40
0.6599728
50
269.8759594
51
0.1240406
0
ARC
8
DEFAULT_255_2_778
10
9.3912345
20
1.8506508
40
0.6599942
50
179.8778094
51
270.1308423
0
LINE
8
DEFAULT_255_2_778
10
8.7312417
20
1.8520583
11
8.7312417
21
1.8520583
0
ENDSEC
0
EOF