0
SECTION
2
HEADER
9
$MEASUREMENT
70
1
0
ENDSEC
0
SECTION
2
TABLES
0
TABLE
2
LTYPE
0
LTYPE
72
65
70
64
2
CONTINUOUS
3
______
73
0
40
0
0
ENDTAB
0
TABLE
2
LAYER
0
LAYER
2
DEFAULT_255_2_778
70
0
62
255
6
CONTINUOUS
0
ENDTAB
0
ENDSEC
0
SECTION
2
ENTITIES
0
LINE
8
DEFAULT_255_2_778
10
12.0385667
20
-1.4552834
11
12.0385667
21
-4.1010834
0
LINE
8
DEFAULT_255_2_778
10
12.0385667
20
-4.1010834
11
6.7468667
21
-4.1010834
0
LINE
8
DEFAULT_255_2_778
10
6.7468667
20
-4.1010834
11
6.7468667
21
-1.4552834
0
LINE
8
DEFAULT_255_2_778
10
6.7468667
20
-1.4552834
11
12.0385667
21
-1.4552834
0
LINE
8
DEFAULT_255_2_778
10
6.7468251
20
-2.7782
11
2.7781251
21
-2.7782
0
LINE
8
DEFAULT_255_2_778
10
12.0385251
20
-2.7782
11
16.0072251
21
-2.7782
0
ARC
8
DEFAULT_255_2_778
10
9.3912557
20
-2.7767557
40
0.6600157
50
89.871003
51
180.128997
0
ARC
8
DEFAULT_255_2_778
10
9.394149
20
-2.7767345
40
0.6599943
50
359.8691577
51
90.1221758
0
ARC
8
DEFAULT_255_2_778
10
9.3941705
20
-2.7796705
40
0.6599728
50
269.8759594
51
0.1240406
0
ARC
8
DEFAULT_255_2_778
10
9.3912345
20
-2.7796492
40
0.6599942
50
179.8778094
51
270.1308423
0
LINE
8
DEFAULT_255_2_778
10
8.7312417
20
-2.7782417
11
8.7312417
21
-2.7782417
0
LINE
8
DEFAULT_255_2_778
10
11.9724126
20
-4.1010834
11
6.8130126
21
-1.4552834
0
ENDSEC
0
EOF