0
SECTION
2
HEADER
9
$MEASUREMENT
70
1
0
ENDSEC
0
SECTION
2
TABLES
0
TABLE
2
LTYPE
0
LTYPE
72
65
70
64
2
CONTINUOUS
3
______
73
0
40
0
0
ENDTAB
0
TABLE
2
LAYER
0
LAYER
2
DEFAULT_255_2_778
70
0
62
255
6
CONTINUOUS
0
ENDTAB
0
ENDSEC
0
SECTION
2
ENTITIES
0
LINE
8
DEFAULT_255_2_778
10
5.6885751
20
11.840504
11
5.6885751
21
6.316804
0
LINE
8
DEFAULT_255_2_778
10
5.6885751
20
6.316804
11
7.8052751
21
6.316804
0
ARC
8
DEFAULT_255_2_778
10
10.0613328
20
6.2580958
40
2.2568215
50
170.2825359
51
178.5093582
0
ARC
8
DEFAULT_255_2_778
10
9.1695149
20
6.4154323
40
1.3512503
50
157.6936638
51
170.4754351
0
ARC
8
DEFAULT_255_2_778
10
8.6579695
20
6.6317109
40
0.7959165
50
133.7466241
51
158.1207377
0
ARC
8
DEFAULT_255_2_778
10
8.5828926
20
6.6838193
40
0.7065942
50
96.8988717
51
132.2703082
0
ARC
8
DEFAULT_255_2_778
10
8.6428123
20
6.3777565
40
1.017892
50
92.4683007
51
98.1779909
0
ARC
8
DEFAULT_255_2_778
10
8.5754548
20
6.5511004
40
0.8439314
50
66.3177643
51
88.4029692
0
ARC
8
DEFAULT_255_2_778
10
8.6203233
20
6.6927215
40
0.6963936
50
25.4659803
51
65.0181916
0
ARC
8
DEFAULT_255_2_778
10
8.1857009
20
6.4653548
40
1.1866931
50
12.1988514
51
26.3543623
0
ARC
8
DEFAULT_255_2_778
10
7.4024828
20
6.2891
40
1.9894814
50
3.2535358
51
12.3940231
0
ARC
8
DEFAULT_255_2_778
10
6.6846217
20
6.2318115
40
2.7094868
50
1.7975773
51
3.601488
0
LINE
8
DEFAULT_255_2_778
10
9.3927751
20
6.316804
11
11.2447751
21
6.316804
0
LINE
8
DEFAULT_255_2_778
10
11.2447751
20
6.316804
11
11.2447751
21
0.860304
0
LINE
8
DEFAULT_255_2_778
10
5.0271168
20
11.3113207
11
6.3500168
21
11.3113207
0
LINE
8
DEFAULT_255_2_778
10
10.5833168
20
1.5218207
11
11.9063168
21
1.5218207
0
LINE
8
DEFAULT_255_2_778
10
5.6886168
20
11.3444207
11
5.6886168
21
11.9728207
0
LINE
8
DEFAULT_255_2_778
10
11.2448
20
0.8602292
11
11.2448
21
1.5217292
0
ARC
8
DEFAULT_255_2_778
10
6.4928836
20
-0.7524584
40
0.792081
50
72.2270494
51
90.9238395
0
ARC
8
DEFAULT_255_2_778
10
6.5745522
20
-0.4858064
40
0.5132391
50
48.3540817
51
71.8225301
0
ARC
8
DEFAULT_255_2_778
10
6.5925589
20
-0.4584301
40
0.4808392
50
357.7055642
51
47.789689
0
ARC
8
DEFAULT_255_2_778
10
6.51865
20
-0.4912758
40
0.5545292
50
335.0858481
51
1.4048632
0
ARC
8
DEFAULT_255_2_778
10
6.6475662
20
-0.541532
40
0.4165306
50
310.6868508
51
333.8852046
0
ARC
8
DEFAULT_255_2_778
10
6.5761397
20
-0.4433315
40
0.5376494
50
279.9372295
51
309.636282
0
ARC
8
DEFAULT_255_2_778
10
6.4854044
20
-0.0247322
40
0.9657787
50
269.5436672
51
280.9539321
0
ARC
8
DEFAULT_255_2_778
10
6.4928642
20
-0.3115443
40
0.4967998
50
268.5291949
51
291.0434722
0
ARC
8
DEFAULT_255_2_778
10
6.5595295
20
-0.5012398
40
0.2958762
50
292.1852802
51
311.223833
0
ARC
8
DEFAULT_255_2_778
10
6.5509269
20
-0.5058796
40
0.2982078
50
313.0547931
51
0.2624069
0
ARC
8
DEFAULT_255_2_778
10
6.3450966
20
-0.4803048
40
0.504616
50
357.2501673
51
0.0254806
0
ARC
8
DEFAULT_255_2_778
10
6.5316793
20
-0.4656537
40
0.3183604
50
357.4027214
51
45.5777685
0
ARC
8
DEFAULT_255_2_778
10
6.5138428
20
-0.5043291
40
0.3587532
50
47.8672537
51
87.6805277
0
ARC
8
DEFAULT_255_2_778
10
6.4813048
20
-0.7267851
40
0.5828183
50
85.3688502
51
88.8686171
0
ARC
8
DEFAULT_255_2_778
10
8.6426836
20
-0.7524584
40
0.792081
50
72.2270494
51
90.9238395
0
ARC
8
DEFAULT_255_2_778
10
8.7243522
20
-0.4858064
40
0.5132391
50
48.3540817
51
71.8225301
0
ARC
8
DEFAULT_255_2_778
10
8.7430926
20
-0.458506
40
0.4804028
50
357.7125357
51
47.8605789
0
ARC
8
DEFAULT_255_2_778
10
8.6690529
20
-0.4912709
40
0.5542264
50
335.0707456
51
1.4051241
0
ARC
8
DEFAULT_255_2_778
10
8.7976549
20
-0.5414126
40
0.4165633
50
310.6668988
51
333.8691259
0
ARC
8
DEFAULT_255_2_778
10
8.7261397
20
-0.4433315
40
0.5376494
50
279.9372295
51
309.636282
0
ARC
8
DEFAULT_255_2_778
10
8.6354044
20
-0.0247322
40
0.9657787
50
269.5436672
51
280.9539321
0
ARC
8
DEFAULT_255_2_778
10
8.6426618
20
-0.3116886
40
0.4966555
50
268.5290423
51
291.0300481
0
ARC
8
DEFAULT_255_2_778
10
8.7093956
20
-0.501646
40
0.2954614
50
292.1701531
51
311.251514
0
ARC
8
DEFAULT_255_2_778
10
8.7008695
20
-0.5058492
40
0.2980645
50
313.0167286
51
0.25669
0
ARC
8
DEFAULT_255_2_778
10
8.4952458
20
-0.4803007
40
0.5042667
50
357.2477989
51
0.0250364
0
ARC
8
DEFAULT_255_2_778
10
8.681653
20
-0.4656773
40
0.3181857
50
357.4055556
51
45.6159594
0
ARC
8
DEFAULT_255_2_778
10
8.663699
20
-0.5039309
40
0.3583531
50
47.8430725
51
87.6871297
0
ARC
8
DEFAULT_255_2_778
10
8.6311063
20
-0.7267235
40
0.5827567
50
85.3686317
51
88.8686512
0
LINE
8
DEFAULT_255_2_778
10
9.2604126
20
9.8561196
11
9.2604126
21
9.6844196
0
LINE
8
DEFAULT_255_2_778
10
9.2604126
20
9.6844196
11
8.7106126
21
9.6844196
0
LINE
8
DEFAULT_255_2_778
10
8.7106126
20
9.6844196
11
8.7106126
21
8.2747196
0
LINE
8
DEFAULT_255_2_778
10
8.7106126
20
8.2747196
11
8.4862126
21
8.2747196
0
LINE
8
DEFAULT_255_2_778
10
8.4862126
20
8.2747196
11
8.4862126
21
9.6844196
0
LINE
8
DEFAULT_255_2_778
10
8.4862126
20
9.6844196
11
7.9374126
21
9.6844196
0
LINE
8
DEFAULT_255_2_778
10
7.9374126
20
9.6844196
11
7.9374126
21
9.8561196
0
LINE
8
DEFAULT_255_2_778
10
7.9374126
20
9.8561196
11
9.2604126
21
9.8561196
0
LINE
8
DEFAULT_255_2_778
10
9.2604126
20
9.8561196
11
9.2604126
21
9.8561196
0
LINE
8
DEFAULT_255_2_778
10
6.4777126
20
-0.9907804
11
6.0790126
21
-0.9907804
0
LINE
8
DEFAULT_255_2_778
10
6.0790126
20
-0.9907804
11
6.0790126
21
-1.6532804
0
LINE
8
DEFAULT_255_2_778
10
6.0790126
20
-1.6532804
11
5.8557126
21
-1.6532804
0
LINE
8
DEFAULT_255_2_778
10
5.8557126
20
-1.6532804
11
5.8557126
21
0.0395196
0
LINE
8
DEFAULT_255_2_778
10
5.8557126
20
0.0395196
11
6.4801126
21
0.0395196
0
LINE
8
DEFAULT_255_2_778
10
6.4777126
20
-0.9904804
11
6.4777126
21
-0.9907804
0
LINE
8
DEFAULT_255_2_778
10
6.0790126
20
-0.1443804
11
6.0790126
21
-0.8081804
0
LINE
8
DEFAULT_255_2_778
10
6.0790126
20
-0.8081804
11
6.4801126
21
-0.8081804
0
LINE
8
DEFAULT_255_2_778
10
6.4928126
20
-0.1440804
11
6.0790126
21
-0.1440804
0
LINE
8
DEFAULT_255_2_778
10
6.0790126
20
-0.1440804
11
6.0790126
21
-0.1443804
0
LINE
8
DEFAULT_255_2_778
10
7.5975126
20
0.0395196
11
7.5975126
21
-1.6532804
0
LINE
8
DEFAULT_255_2_778
10
7.5975126
20
-1.6532804
11
7.3741126
21
-1.6532804
0
LINE
8
DEFAULT_255_2_778
10
7.3741126
20
-1.6532804
11
7.3741126
21
0.0395196
0
LINE
8
DEFAULT_255_2_778
10
7.3741126
20
0.0395196
11
7.5975126
21
0.0395196
0
LINE
8
DEFAULT_255_2_778
10
7.5975126
20
0.0395196
11
7.5975126
21
0.0395196
0
LINE
8
DEFAULT_255_2_778
10
8.6275126
20
-0.9907804
11
8.2287126
21
-0.9907804
0
LINE
8
DEFAULT_255_2_778
10
8.2287126
20
-0.9907804
11
8.2287126
21
-1.6532804
0
LINE
8
DEFAULT_255_2_778
10
8.2287126
20
-1.6532804
11
8.0054126
21
-1.6532804
0
LINE
8
DEFAULT_255_2_778
10
8.0054126
20
-1.6532804
11
8.0054126
21
0.0395196
0
LINE
8
DEFAULT_255_2_778
10
8.0054126
20
0.0395196
11
8.6299126
21
0.0395196
0
LINE
8
DEFAULT_255_2_778
10
8.6277126
20
-0.9904804
11
8.6275126
21
-0.9907804
0
LINE
8
DEFAULT_255_2_778
10
8.2287126
20
-0.1443804
11
8.2287126
21
-0.8081804
0
LINE
8
DEFAULT_255_2_778
10
8.2287126
20
-0.8081804
11
8.6299126
21
-0.8081804
0
LINE
8
DEFAULT_255_2_778
10
8.6426126
20
-0.1440804
11
8.2287126
21
-0.1440804
0
LINE
8
DEFAULT_255_2_778
10
8.2287126
20
-0.1440804
11
8.2287126
21
-0.1443804
0
LINE
8
DEFAULT_255_2_778
10
10.4647126
20
-0.6882804
11
10.4647126
21
-0.8708804
0
LINE
8
DEFAULT_255_2_778
10
10.4647126
20
-0.8708804
11
9.7311126
21
-0.8708804
0
LINE
8
DEFAULT_255_2_778
10
9.7311126
20
-0.8708804
11
9.7311126
21
-1.4709804
0
LINE
8
DEFAULT_255_2_778
10
9.7311126
20
-1.4709804
11
10.5833126
21
-1.4709804
0
LINE
8
DEFAULT_255_2_778
10
10.5833126
20
-1.4709804
11
10.5833126
21
-1.6534804
0
LINE
8
DEFAULT_255_2_778
10
10.5833126
20
-1.6534804
11
9.5077126
21
-1.6534804
0
LINE
8
DEFAULT_255_2_778
10
9.5077126
20
-1.6534804
11
9.5077126
21
0.0393196
0
LINE
8
DEFAULT_255_2_778
10
9.5077126
20
0.0393196
11
10.5716126
21
0.0393196
0
LINE
8
DEFAULT_255_2_778
10
10.5716126
20
0.0393196
11
10.5716126
21
-0.1443804
0
LINE
8
DEFAULT_255_2_778
10
10.5716126
20
-0.1443804
11
9.7311126
21
-0.1443804
0
LINE
8
DEFAULT_255_2_778
10
9.7311126
20
-0.1443804
11
9.7311126
21
-0.6885804
0
LINE
8
DEFAULT_255_2_778
10
9.7311126
20
-0.6885804
11
10.4647126
21
-0.6885804
0
LINE
8
DEFAULT_255_2_778
10
10.4647126
20
-0.6885804
11
10.4647126
21
-0.6882804
0
ENDSEC
0
EOF