0
SECTION
2
HEADER
9
$MEASUREMENT
70
1
0
ENDSEC
0
SECTION
2
TABLES
0
TABLE
2
LTYPE
0
LTYPE
72
65
70
64
2
CONTINUOUS
3
______
73
0
40
0
0
ENDTAB
0
TABLE
2
LAYER
0
LAYER
2
DEFAULT_255_2_778
70
0
62
255
6
CONTINUOUS
0
ENDTAB
0
ENDSEC
0
SECTION
2
ENTITIES
0
LINE
8
DEFAULT_255_2_778
10
5.4575794
20
2.5135333
11
16.0408794
21
2.5135333
0
LINE
8
DEFAULT_255_2_778
10
16.0408794
20
2.5135333
11
16.0408794
21
-2.7781667
0
LINE
8
DEFAULT_255_2_778
10
16.0408794
20
-2.7781667
11
5.4575794
21
-2.7781667
0
LINE
8
DEFAULT_255_2_778
10
5.4575794
20
-2.7781667
11
5.4575794
21
2.5135333
0
LINE
8
DEFAULT_255_2_778
10
2.7450794
20
-0.1322667
11
5.3908794
21
-0.1322667
0
LINE
8
DEFAULT_255_2_778
10
16.0403335
20
-0.1322667
11
18.6861335
21
-0.1322667
0
LINE
8
DEFAULT_255_2_778
10
8.1028335
20
2.5135333
11
8.1028335
21
0.5291333
0
LINE
8
DEFAULT_255_2_778
10
8.1028335
20
-2.7781667
11
8.1028335
21
-0.7937667
0
LINE
8
DEFAULT_255_2_778
10
8.1028417
20
0.5291583
11
9.4257417
21
0.5291583
0
LINE
8
DEFAULT_255_2_778
10
8.1028417
20
-0.7937417
11
9.4257417
21
-0.7937417
0
ENDSEC
0
EOF