0
SECTION
2
HEADER
9
$MEASUREMENT
70
1
0
ENDSEC
0
SECTION
2
TABLES
0
TABLE
2
LTYPE
0
LTYPE
72
65
70
64
2
CONTINUOUS
3
______
73
0
40
0
0
ENDTAB
0
TABLE
2
LAYER
0
LAYER
2
DEFAULT_255_2_778
70
0
62
255
6
CONTINUOUS
0
LAYER
2
DEFAULT_255_1_604
70
0
62
255
6
CONTINUOUS
0
ENDTAB
0
ENDSEC
0
SECTION
2
ENTITIES
0
LINE
8
DEFAULT_255_2_778
10
2.7781169
20
10.4510831
11
16.0073169
21
10.4510831
0
LINE
8
DEFAULT_255_2_778
10
16.0073169
20
10.4510831
11
16.0073169
21
-2.7781169
0
LINE
8
DEFAULT_255_2_778
10
16.0073169
20
-2.7781169
11
2.7781169
21
-2.7781169
0
LINE
8
DEFAULT_255_2_778
10
2.7781169
20
-2.7781169
11
2.7781169
21
10.4510831
0
ARC
8
DEFAULT_255_2_778
10
9.4714482
20
3.8406008
40
6.6933326
50
168.541472
51
180.0352475
0
ARC
8
DEFAULT_255_2_778
10
9.3536576
20
3.8624864
40
6.5735422
50
153.0463229
51
168.5244689
0
ARC
8
DEFAULT_255_2_778
10
9.3822328
20
3.8462071
40
6.6063925
50
109.7078398
51
153.0328055
0
ARC
8
DEFAULT_255_2_778
10
9.3740716
20
3.8498054
40
6.6002561
50
96.3164082
51
109.6516769
0
ARC
8
DEFAULT_255_2_778
10
9.3912407
20
3.7069124
40
6.7441708
50
89.9874593
51
96.3278261
0
ARC
8
DEFAULT_255_2_778
10
9.3968345
20
3.7577518
40
6.6933326
50
78.541472
51
90.0352475
0
ARC
8
DEFAULT_255_2_778
10
9.4187201
20
3.8755424
40
6.5735422
50
63.0463229
51
78.5244689
0
ARC
8
DEFAULT_255_2_778
10
9.4024408
20
3.8469672
40
6.6063925
50
19.7078398
51
63.0328055
0
ARC
8
DEFAULT_255_2_778
10
9.4060391
20
3.8551284
40
6.6002561
50
6.3164082
51
19.6516769
0
ARC
8
DEFAULT_255_2_778
10
9.2631461
20
3.8379593
40
6.7441708
50
359.9874593
51
6.3278261
0
ARC
8
DEFAULT_255_2_778
10
9.3139855
20
3.8323655
40
6.6933326
50
348.541472
51
0.0352475
0
ARC
8
DEFAULT_255_2_778
10
9.4317761
20
3.8104799
40
6.5735422
50
333.0463229
51
348.5244689
0
ARC
8
DEFAULT_255_2_778
10
9.4032009
20
3.8267592
40
6.6063925
50
289.7078398
51
333.0328055
0
ARC
8
DEFAULT_255_2_778
10
9.4113621
20
3.8231609
40
6.6002561
50
276.3164082
51
289.6516769
0
ARC
8
DEFAULT_255_2_778
10
9.394193
20
3.9660539
40
6.7441708
50
269.9874593
51
276.3278261
0
ARC
8
DEFAULT_255_2_778
10
9.3885992
20
3.9152145
40
6.6933326
50
258.541472
51
270.0352475
0
ARC
8
DEFAULT_255_2_778
10
9.3667136
20
3.7974239
40
6.5735422
50
243.0463229
51
258.5244689
0
ARC
8
DEFAULT_255_2_778
10
9.3829929
20
3.8259991
40
6.6063925
50
199.7078398
51
243.0328055
0
ARC
8
DEFAULT_255_2_778
10
9.3793946
20
3.8178379
40
6.6002561
50
186.3164082
51
199.6516769
0
ARC
8
DEFAULT_255_2_778
10
9.5222876
20
3.835007
40
6.7441708
50
179.9874593
51
186.3278261
0
LINE
8
DEFAULT_255_2_778
10
2.7781169
20
3.8364831
11
2.7781169
21
3.8364831
0
LINE
8
DEFAULT_255_1_604
10
7.4297205
20
5.9037
11
7.0089515
21
5.9037
0
LINE
8
DEFAULT_255_1_604
10
7.0089515
20
5.9037
11
7.0089515
21
7.4238977
0
LINE
8
DEFAULT_255_1_604
10
7.0089515
20
7.4238977
11
7.4380732
21
7.4238977
0
LINE
8
DEFAULT_255_1_604
10
8.1083802
20
6.7149593
11
8.1083802
21
6.6178588
0
LINE
8
DEFAULT_255_1_604
10
7.4432937
20
7.2589312
11
7.2094171
21
7.2589312
0
LINE
8
DEFAULT_255_1_604
10
7.2094171
20
7.2589312
11
7.2094171
21
6.0676224
0
LINE
8
DEFAULT_255_1_604
10
7.2094171
20
6.0676224
11
7.4203237
21
6.0676224
0
LINE
8
DEFAULT_255_1_604
10
7.9100027
20
6.6220352
11
7.9100027
21
6.710783
0
ARC
8
DEFAULT_255_1_604
10
7.4431353
20
6.6614318
40
0.7624827
50
75.4100774
51
90.3803846
0
ARC
8
DEFAULT_255_1_604
10
7.4729716
20
6.7857839
40
0.6346294
50
60.1456505
51
75.1888808
0
ARC
8
DEFAULT_255_1_604
10
7.4936109
20
6.8217547
40
0.5931579
50
26.5254235
51
60.1450903
0
ARC
8
DEFAULT_255_1_604
10
7.3479949
20
6.7445364
40
0.757942
50
7.4029017
51
26.832236
0
ARC
8
DEFAULT_255_1_604
10
7.140731
20
6.712249
40
0.967653
50
0.1604823
51
7.717504
0
ARC
8
DEFAULT_255_1_604
10
7.1620451
20
6.612882
40
0.9463482
50
348.7290162
51
0.3013178
0
ARC
8
DEFAULT_255_1_604
10
7.3773764
20
6.5701071
40
0.7268094
50
333.0706801
51
348.7182579
0
ARC
8
DEFAULT_255_1_604
10
7.5030499
20
6.5018513
40
0.583864
50
299.2531206
51
333.4571395
0
ARC
8
DEFAULT_255_1_604
10
7.4561381
20
6.5909642
40
0.6845416
50
278.1072459
51
299.0340304
0
ARC
8
DEFAULT_255_1_604
10
7.4228688
20
6.7869393
40
0.8832658
50
270.4444611
51
278.4509945
0
ARC
8
DEFAULT_255_1_604
10
7.4255785
20
6.6661535
40
0.5985542
50
269.4969829
51
284.020426
0
ARC
8
DEFAULT_255_1_604
10
7.4717654
20
6.4886776
40
0.4151796
50
283.7700501
51
318.1556027
0
ARC
8
DEFAULT_255_1_604
10
7.4279226
20
6.5214891
40
0.4697543
50
318.7416475
51
343.6872757
0
ARC
8
DEFAULT_255_1_604
10
7.1934015
20
6.5947391
40
0.7154224
50
343.3325746
51
355.8546968
0
ARC
8
DEFAULT_255_1_604
10
6.9205445
20
6.620671
40
0.9894591
50
355.4991336
51
0.0789924
0
ARC
8
DEFAULT_255_1_604
10
7.0223851
20
6.7162758
40
0.8876346
50
359.6454412
51
9.8607665
0
ARC
8
DEFAULT_255_1_604
10
7.3292588
20
6.7716934
40
0.5758076
50
9.657244
51
26.1932279
0
ARC
8
DEFAULT_255_1_604
10
7.4499028
20
6.8277282
40
0.4428288
50
26.5777141
51
40.1534131
0
ARC
8
DEFAULT_255_1_604
10
7.4831408
20
6.8536604
40
0.4007056
50
40.3839847
51
80.1431575
0
ARC
8
DEFAULT_255_1_604
10
7.4406485
20
6.6652702
40
0.5936668
50
79.2151462
51
89.7447056
0
LINE
8
DEFAULT_255_1_604
10
9.3278794
20
6.3860704
11
9.5293891
21
6.3860704
0
LINE
8
DEFAULT_255_1_604
10
8.3589622
20
6.5928006
11
8.3589622
21
6.7389734
0
LINE
8
DEFAULT_255_1_604
10
9.5293891
20
6.9352627
11
9.3278794
21
6.9352627
0
LINE
8
DEFAULT_255_1_604
10
8.5604719
20
6.733753
11
8.5604719
21
6.586536
0
ARC
8
DEFAULT_255_1_604
10
8.816915
20
6.4637063
40
0.7166915
50
340.1775576
51
353.7812106
0
ARC
8
DEFAULT_255_1_604
10
9.0212008
20
6.3876204
40
0.4987141
50
311.4559504
51
340.4421488
0
ARC
8
DEFAULT_255_1_604
10
9.0168695
20
6.4020398
40
0.5124271
50
282.4333086
51
310.7514973
0
ARC
8
DEFAULT_255_1_604
10
8.9597679
20
6.6379955
40
0.7551593
50
269.9357733
51
282.8096752
0
ARC
8
DEFAULT_255_1_604
10
8.9530574
20
6.817238
40
0.9344198
50
269.9995741
51
270.3595627
0
ARC
8
DEFAULT_255_1_604
10
8.9461808
20
6.4894123
40
0.6066331
50
250.7885824
51
270.6488458
0
ARC
8
DEFAULT_255_1_604
10
8.9243212
20
6.4065678
40
0.521251
50
219.3628447
51
250.061101
0
ARC
8
DEFAULT_255_1_604
10
9.0321162
20
6.4981776
40
0.6626984
50
193.5480378
51
219.5756113
0
ARC
8
DEFAULT_255_1_604
10
9.3404346
20
6.5782402
40
0.981209
50
181.1220108
51
193.8755006
0
ARC
8
DEFAULT_255_1_604
10
9.6088222
20
6.5926154
40
1.2498599
50
179.99151
51
181.5399535
0
ARC
8
DEFAULT_255_1_604
10
9.3689353
20
6.7438326
40
1.0099848
50
169.583756
51
180.2756585
0
ARC
8
DEFAULT_255_1_604
10
9.1301071
20
6.787961
40
0.7671142
50
155.0365328
51
169.6003042
0
ARC
8
DEFAULT_255_1_604
10
8.9824972
20
6.8591249
40
0.6032646
50
136.7831839
51
155.2472054
0
ARC
8
DEFAULT_255_1_604
10
8.9318526
20
6.9021472
40
0.5369068
50
121.7631907
51
136.4282303
0
ARC
8
DEFAULT_255_1_604
10
8.9494042
20
6.8697227
40
0.5737183
50
95.6460587
51
121.548908
0
ARC
8
DEFAULT_255_1_604
10
8.9698494
20
6.7256699
40
0.7191102
50
89.924257
51
96.1379577
0
ARC
8
DEFAULT_255_1_604
10
8.9764039
20
6.7410691
40
0.7037327
50
76.6779318
51
90.4562576
0
ARC
8
DEFAULT_255_1_604
10
9.0275755
20
6.9478426
40
0.4907369
50
47.4858007
51
76.9288246
0
ARC
8
DEFAULT_255_1_604
10
9.0084627
20
6.9348476
40
0.5132589
50
16.5423853
51
46.8934164
0
ARC
8
DEFAULT_255_1_604
10
8.7994271
20
6.8661658
40
0.7332251
50
5.4074004
51
17.0363574
0
ARC
8
DEFAULT_255_1_604
10
8.6124191
20
6.8361239
40
0.7222963
50
7.8890383
51
15.9241503
0
ARC
8
DEFAULT_255_1_604
10
8.8706993
20
6.911123
40
0.4533522
50
15.7651386
51
27.9411443
0
ARC
8
DEFAULT_255_1_604
10
9.0142294
20
6.9879644
40
0.2905491
50
27.8167389
51
46.4005855
0
ARC
8
DEFAULT_255_1_604
10
9.0206861
20
6.9872241
40
0.2866793
50
47.4371997
51
75.0696919
0
ARC
8
DEFAULT_255_1_604
10
8.9805722
20
6.8475784
40
0.4319546
50
74.7008352
51
87.8127327
0
ARC
8
DEFAULT_255_1_604
10
8.9710491
20
6.7107229
40
0.5690901
50
87.3805145
51
90.0250812
0
ARC
8
DEFAULT_255_1_604
10
8.9660415
20
6.8633605
40
0.4164797
50
89.345352
51
108.5744563
0
ARC
8
DEFAULT_255_1_604
10
8.9482452
20
6.9301339
40
0.3475436
50
109.2999369
51
143.3037548
0
ARC
8
DEFAULT_255_1_604
10
9.0473044
20
6.8539572
40
0.4724957
50
143.0752268
51
163.191912
0
ARC
8
DEFAULT_255_1_604
10
9.3010254
20
6.7738881
40
0.7385381
50
162.9373961
51
174.620923
0
ARC
8
DEFAULT_255_1_604
10
9.642469
20
6.7364498
40
1.0820005
50
174.3421243
51
180.1428039
0
ARC
8
DEFAULT_255_1_604
10
9.5213848
20
6.5811981
40
0.9609277
50
179.6817205
51
189.1506051
0
ARC
8
DEFAULT_255_1_604
10
9.1963041
20
6.5270528
40
0.631376
50
188.9910195
51
203.5773417
0
ARC
8
DEFAULT_255_1_604
10
9.0559534
20
6.4688173
40
0.4794561
50
203.9076808
51
215.1312703
0
ARC
8
DEFAULT_255_1_604
10
8.9359829
20
6.3758376
40
0.3279095
50
213.9072132
51
263.884848
0
ARC
8
DEFAULT_255_1_604
10
8.9522763
20
6.4778474
40
0.4311075
50
263.1759381
51
270.1028896
0
ARC
8
DEFAULT_255_1_604
10
8.9564462
20
6.6399256
40
0.5931948
50
269.6720046
51
279.0607459
0
ARC
8
DEFAULT_255_1_604
10
8.9911238
20
6.4302999
40
0.3807256
50
278.8752379
51
293.6348896
0
ARC
8
DEFAULT_255_1_604
10
9.0327514
20
6.3325418
40
0.274481
50
293.8553414
51
310.0519576
0
ARC
8
DEFAULT_255_1_604
10
9.0333821
20
6.3244329
40
0.26791
50
311.0646716
51
332.0108643
0
ARC
8
DEFAULT_255_1_604
10
8.8784035
20
6.4098962
40
0.4448784
50
331.6586146
51
343.2879852
0
ARC
8
DEFAULT_255_1_604
10
8.6102432
20
6.4923017
40
0.7254111
50
343.144835
51
351.0104737
0
ARC
8
DEFAULT_255_1_604
10
8.4012659
20
6.5302212
40
0.9377591
50
350.7171884
51
351.1575273
0
LINE
8
DEFAULT_255_1_604
10
10.8115338
20
6.984335
11
10.6100241
21
6.984335
0
LINE
8
DEFAULT_255_1_604
10
9.710017
20
6.3443067
11
9.9115267
21
6.3443067
0
ARC
8
DEFAULT_255_1_604
10
10.6956359
20
8.1472963
40
1.6279202
50
248.9196552
51
254.1440726
0
ARC
8
DEFAULT_255_1_604
10
10.4771918
20
7.5849326
40
1.0246237
50
241.6336607
51
249.0066662
0
ARC
8
DEFAULT_255_1_604
10
10.2785085
20
7.2208745
40
0.6098858
50
230.4983176
51
241.8084263
0
ARC
8
DEFAULT_255_1_604
10
10.1767343
20
7.0911712
40
0.4450852
50
227.4067756
51
229.9866257
0
ARC
8
DEFAULT_255_1_604
10
10.1131534
20
7.0290851
40
0.3563802
50
200.6782895
51
228.1765119
0
ARC
8
DEFAULT_255_1_604
10
10.1225562
20
7.0271345
40
0.3645247
50
179.5063595
51
199.8695341
0
ARC
8
DEFAULT_255_1_604
10
10.1213517
20
7.0367705
40
0.3633646
50
132.4834402
51
181.0242633
0
ARC
8
DEFAULT_255_1_604
10
10.1987455
20
6.9636784
40
0.4696012
50
129.252896
51
133.4243007
0
ARC
8
DEFAULT_255_1_604
10
10.2178133
20
6.935081
40
0.503822
50
101.9877961
51
128.8742602
0
ARC
8
DEFAULT_255_1_604
10
10.2696302
20
6.7113313
40
0.7334669
50
89.5906337
51
102.31693
0
ARC
8
DEFAULT_255_1_604
10
10.2787933
20
6.7527213
40
0.6920693
50
77.2360136
51
90.3247516
0
ARC
8
DEFAULT_255_1_604
10
10.3057084
20
6.878448
40
0.5635052
50
63.8378549
51
77.0807024
0
ARC
8
DEFAULT_255_1_604
10
10.3418249
20
6.9457396
40
0.4871913
50
45.9862967
51
64.1608756
0
ARC
8
DEFAULT_255_1_604
10
10.375726
20
6.9844607
40
0.4357959
50
32.2748401
51
45.6544751
0
ARC
8
DEFAULT_255_1_604
10
10.3843715
20
6.9869388
40
0.4271704
50
359.6507489
51
32.61301
0
ARC
8
DEFAULT_255_1_604
10
10.2617944
20
6.9875594
40
0.3482447
50
359.4694993
51
14.9832001
0
ARC
8
DEFAULT_255_1_604
10
10.3534532
20
7.0121133
40
0.253354
50
14.9782012
51
48.2004529
0
ARC
8
DEFAULT_255_1_604
10
10.3320885
20
6.9852635
40
0.2876169
50
48.5927279
51
74.1242187
0
ARC
8
DEFAULT_255_1_604
10
10.2887337
20
6.8421764
40
0.4371137
50
73.7887574
51
86.6653371
0
ARC
8
DEFAULT_255_1_604
10
10.2754207
20
6.6852868
40
0.5945264
50
86.263989
51
90.0530095
0
ARC
8
DEFAULT_255_1_604
10
10.2717372
20
6.7366432
40
0.5431788
50
89.6694744
51
99.2313066
0
ARC
8
DEFAULT_255_1_604
10
10.2402115
20
6.9244161
40
0.3527818
50
99.0697403
51
113.7658074
0
ARC
8
DEFAULT_255_1_604
10
10.2046097
20
7.00837
40
0.2616027
50
114.0397144
51
127.9852033
0
ARC
8
DEFAULT_255_1_604
10
10.1733596
20
7.0468475
40
0.2120448
50
127.728744
51
176.7105171
0
ARC
8
DEFAULT_255_1_604
10
10.261656
20
7.0337124
40
0.3010569
50
175.1788725
51
180.0580527
0
ARC
8
DEFAULT_255_1_604
10
10.1519835
20
7.0321183
40
0.1913888
50
179.6140914
51
228.1245604
0
ARC
8
DEFAULT_255_1_604
10
10.2094761
20
7.0853569
40
0.2695053
50
226.5785192
51
230.8787202
0
ARC
8
DEFAULT_255_1_604
10
10.2706394
20
7.1665662
40
0.3711196
50
231.4636783
51
241.9261027
0
ARC
8
DEFAULT_255_1_604
10
10.4262647
20
7.4529597
40
0.6970598
50
241.7177343
51
248.3258679
0
ARC
8
DEFAULT_255_1_604
10
10.6063226
20
7.8990359
40
1.1781012
50
248.2004104
51
252.4528805
0
ARC
8
DEFAULT_255_1_604
10
10.7630765
20
8.3836946
40
1.6874714
50
252.3394649
51
254.3463217
0
ARC
8
DEFAULT_255_1_604
10
9.7823816
20
4.8760202
40
1.9547183
50
71.0195902
51
74.408661
0
ARC
8
DEFAULT_255_1_604
10
10.0026926
20
5.5119628
40
1.2816979
50
66.1845748
51
71.086447
0
ARC
8
DEFAULT_255_1_604
10
10.2049929
20
5.9674349
40
0.7833226
50
59.3536705
51
66.2693383
0
ARC
8
DEFAULT_255_1_604
10
10.3205088
20
6.162864
40
0.5563063
50
49.102012
51
59.3293902
0
ARC
8
DEFAULT_255_1_604
10
10.4269331
20
6.2841689
40
0.3949386
50
32.7923413
51
49.2505082
0
ARC
8
DEFAULT_255_1_604
10
10.4683572
20
6.3136576
40
0.3441528
50
31.1194044
51
32.4004008
0
ARC
8
DEFAULT_255_1_604
10
10.4571802
20
6.3092583
40
0.3560005
50
8.1116636
51
30.7958587
0
ARC
8
DEFAULT_255_1_604
10
10.3518665
20
6.2913154
40
0.4628015
50
359.8388829
51
8.4711031
0
ARC
8
DEFAULT_255_1_604
10
10.433192
20
6.2849947
40
0.3815071
50
337.4731248
51
0.7538276
0
ARC
8
DEFAULT_255_1_604
10
10.4564193
20
6.2824292
40
0.3591286
50
307.5917044
51
336.4314267
0
ARC
8
DEFAULT_255_1_604
10
10.396025
20
6.349792
40
0.4493987
50
307.6576182
51
308.453814
0
ARC
8
DEFAULT_255_1_604
10
10.3666665
20
6.3952407
40
0.503336
50
284.3733492
51
307.1426274
0
ARC
8
DEFAULT_255_1_604
10
10.3022917
20
6.632067
40
0.7487383
50
272.4384453
51
284.6465541
0
ARC
8
DEFAULT_255_1_604
10
10.2858119
20
6.8659498
40
0.9831319
50
269.9708444
51
272.8180835
0
ARC
8
DEFAULT_255_1_604
10
10.2802275
20
6.6010906
40
0.7182904
50
248.2707574
51
270.4055434
0
ARC
8
DEFAULT_255_1_604
10
10.2733426
20
6.5767314
40
0.693118
50
246.1392493
51
248.0539658
0
ARC
8
DEFAULT_255_1_604
10
10.2187518
20
6.4620086
40
0.5661284
50
233.1671073
51
246.4952821
0
ARC
8
DEFAULT_255_1_604
10
10.1467274
20
6.3647727
40
0.445125
50
215.340369
51
233.0842247
0
ARC
8
DEFAULT_255_1_604
10
10.1112916
20
6.3389971
40
0.4013099
50
179.2419065
51
215.2648831
0
ARC
8
DEFAULT_255_1_604
10
10.2110774
20
6.3408322
40
0.2995708
50
179.3354443
51
199.1044828
0
ARC
8
DEFAULT_255_1_604
10
10.1678754
20
6.3295358
40
0.2550746
50
199.8829298
51
232.7063531
0
ARC
8
DEFAULT_255_1_604
10
10.2292682
20
6.4067546
40
0.3537092
50
232.373695
51
255.5136246
0
ARC
8
DEFAULT_255_1_604
10
10.2735804
20
6.5684836
40
0.5213868
50
255.2447314
51
267.5320255
0
ARC
8
DEFAULT_255_1_604
10
10.2849692
20
6.7288963
40
0.6821558
50
267.1565212
51
270.0287584
0
ARC
8
DEFAULT_255_1_604
10
10.2885821
20
6.6710448
40
0.6243128
50
269.6998489
51
278.1660484
0
ARC
8
DEFAULT_255_1_604
10
10.3218635
20
6.4460935
40
0.3969162
50
278.0229485
51
290.6258036
0
ARC
8
DEFAULT_255_1_604
10
10.3670601
20
6.3255352
40
0.2681647
50
290.6618451
51
307.0372594
0
ARC
8
DEFAULT_255_1_604
10
10.4061081
20
6.277633
40
0.2064202
50
306.3942077
51
355.3031145
0
ARC
8
DEFAULT_255_1_604
10
10.3395271
20
6.2875914
40
0.2736295
50
354.3664644
51
0.0700163
0
ARC
8
DEFAULT_255_1_604
10
10.3580466
20
6.2905177
40
0.2551229
50
359.4178864
51
16.1972437
0
ARC
8
DEFAULT_255_1_604
10
10.4172341
20
6.3067424
40
0.1937613
50
16.4720592
51
52.6262128
0
ARC
8
DEFAULT_255_1_604
10
10.3105158
20
6.1658312
40
0.3705223
50
52.7385707
51
62.4979505
0
ARC
8
DEFAULT_255_1_604
10
10.1305058
20
5.8270909
40
0.7541152
50
62.251463
51
68.1224478
0
ARC
8
DEFAULT_255_1_604
10
9.9068905
20
5.2775448
40
1.3474116
50
68.0060697
51
71.8052792
0
ARC
8
DEFAULT_255_1_604
10
9.6734938
20
4.5775869
40
2.085252
50
71.718261
51
73.9259731
0
LINE
8
DEFAULT_255_1_604
10
9.0244429
20
2.1395063
11
9.0244429
21
0.612
0
LINE
8
DEFAULT_255_1_604
10
9.0244429
20
0.612
11
8.8302418
21
0.612
0
LINE
8
DEFAULT_255_1_604
10
8.8302418
20
0.612
11
8.8302418
21
1.8993652
0
LINE
8
DEFAULT_255_1_604
10
8.8302418
20
1.8993652
11
8.4407956
21
1.7563246
0
LINE
8
DEFAULT_255_1_604
10
8.4407956
20
1.7563246
11
8.4407956
21
1.931732
0
LINE
8
DEFAULT_255_1_604
10
8.4407956
20
1.931732
11
8.9941643
21
2.1395063
0
LINE
8
DEFAULT_255_1_604
10
8.9941643
20
2.1395063
11
9.0244429
21
2.1395063
0
ENDSEC
0
EOF