0
SECTION
2
HEADER
9
$MEASUREMENT
70
1
0
ENDSEC
0
SECTION
2
TABLES
0
TABLE
2
LTYPE
0
LTYPE
72
65
70
64
2
CONTINUOUS
3
______
73
0
40
0
0
ENDTAB
0
TABLE
2
LAYER
0
LAYER
2
DEFAULT_255_2_778
70
0
62
255
6
CONTINUOUS
0
LAYER
2
DEFAULT_255_1_604
70
0
62
255
6
CONTINUOUS
0
ENDTAB
0
ENDSEC
0
SECTION
2
ENTITIES
0
LINE
8
DEFAULT_255_2_778
10
5.4239169
20
10.4510831
11
2.7781169
21
3.8364831
0
LINE
8
DEFAULT_255_2_778
10
2.7781169
20
3.8364831
11
5.4239169
21
-2.7781169
0
LINE
8
DEFAULT_255_2_778
10
5.4239169
20
-2.7781169
11
13.3614169
21
-2.7781169
0
LINE
8
DEFAULT_255_2_778
10
13.3614169
20
-2.7781169
11
16.0073169
21
3.8364831
0
LINE
8
DEFAULT_255_2_778
10
16.0073169
20
3.8364831
11
13.3614169
21
10.4510831
0
LINE
8
DEFAULT_255_2_778
10
13.3614169
20
10.4510831
11
5.4239169
21
10.4510831
0
LINE
8
DEFAULT_255_1_604
10
7.6869406
20
6.4988323
11
7.3288171
21
6.4988323
0
LINE
8
DEFAULT_255_1_604
10
7.3288171
20
6.4988323
11
7.3288171
21
5.9037
0
LINE
8
DEFAULT_255_1_604
10
7.3288171
20
5.9037
11
7.1283515
21
5.9037
0
LINE
8
DEFAULT_255_1_604
10
7.1283515
20
5.9037
11
7.1283515
21
7.4238977
0
LINE
8
DEFAULT_255_1_604
10
7.1283515
20
7.4238977
11
7.6890288
21
7.4238977
0
LINE
8
DEFAULT_255_1_604
10
7.3288171
20
7.2589312
11
7.3288171
21
6.6627547
0
LINE
8
DEFAULT_255_1_604
10
7.3288171
20
6.6627547
11
7.6890288
21
6.6627547
0
LINE
8
DEFAULT_255_1_604
10
7.7005138
20
7.2589312
11
7.3288171
21
7.2589312
0
ARC
8
DEFAULT_255_1_604
10
7.6945049
20
6.6362426
40
0.7876741
50
78.8379181
51
90.3983364
0
ARC
8
DEFAULT_255_1_604
10
7.7485843
20
6.8989298
40
0.5194916
50
58.9632993
51
79.0810081
0
ARC
8
DEFAULT_255_1_604
10
7.7877914
20
6.9717179
40
0.4369272
50
48.0196763
51
58.4473503
0
ARC
8
DEFAULT_255_1_604
10
7.7993354
20
6.9828239
40
0.4209513
50
3.3374908
51
48.1766126
0
ARC
8
DEFAULT_255_1_604
10
7.6393081
20
6.9598021
40
0.5822079
50
359.9483027
51
4.6825437
0
ARC
8
DEFAULT_255_1_604
10
7.6554496
20
6.9542773
40
0.5660881
50
346.187811
51
0.5060212
0
ARC
8
DEFAULT_255_1_604
10
7.8320963
20
6.9084031
40
0.3836049
50
310.8832963
51
346.5425636
0
ARC
8
DEFAULT_255_1_604
10
7.7919838
20
6.9626056
40
0.4508682
50
286.6925476
51
310.2288456
0
ARC
8
DEFAULT_255_1_604
10
7.7179942
20
7.1953216
40
0.6950416
50
274.6850413
51
287.0245368
0
ARC
8
DEFAULT_255_1_604
10
7.6887114
20
7.4824561
40
0.9836252
50
269.8968534
51
275.0189466
0
ARC
8
DEFAULT_255_1_604
10
7.6922955
20
7.2122157
40
0.5494707
50
269.6593667
51
279.4151209
0
ARC
8
DEFAULT_255_1_604
10
7.7257421
20
7.018426
40
0.3528224
50
279.2048717
51
294.9902009
0
ARC
8
DEFAULT_255_1_604
10
7.7634875
20
6.9342342
40
0.2605699
50
295.2884184
51
311.2913347
0
ARC
8
DEFAULT_255_1_604
10
7.7726983
20
6.9205557
40
0.2442233
50
311.7853299
51
347.285981
0
ARC
8
DEFAULT_255_1_604
10
7.6448068
20
6.9534279
40
0.376234
50
346.6891268
51
0.105898
0
ARC
8
DEFAULT_255_1_604
10
7.5523523
20
6.9571543
40
0.4686976
50
359.6294666
51
0.0041938
0
ARC
8
DEFAULT_255_1_604
10
7.6727793
20
6.9604273
40
0.3482858
50
359.4672039
51
15.5933324
0
ARC
8
DEFAULT_255_1_604
10
7.7540119
20
6.982375
40
0.2641443
50
15.744312
51
46.6202191
0
ARC
8
DEFAULT_255_1_604
10
7.7348043
20
6.9602403
40
0.2934273
50
46.8628152
51
75.6678312
0
ARC
8
DEFAULT_255_1_604
10
7.6965597
20
6.8225881
40
0.4362728
50
75.2765339
51
88.2914447
0
ARC
8
DEFAULT_255_1_604
10
7.6889919
20
6.7084245
40
0.5506271
50
87.8585073
51
88.8009899
0
LINE
8
DEFAULT_255_1_604
10
8.6788278
20
7.4238977
11
8.6788278
21
6.0676224
0
LINE
8
DEFAULT_255_1_604
10
8.6788278
20
6.0676224
11
9.3992512
21
6.0676224
0
LINE
8
DEFAULT_255_1_604
10
9.3992512
20
6.0676224
11
9.3992512
21
5.9037
0
LINE
8
DEFAULT_255_1_604
10
9.3992512
20
5.9037
11
8.4773181
21
5.9037
0
LINE
8
DEFAULT_255_1_604
10
8.4773181
20
5.9037
11
8.4773181
21
7.4238977
0
LINE
8
DEFAULT_255_1_604
10
8.4773181
20
7.4238977
11
8.6788278
21
7.4238977
0
LINE
8
DEFAULT_255_1_604
10
10.4767539
20
6.3860704
11
10.6782636
21
6.3860704
0
LINE
8
DEFAULT_255_1_604
10
9.5078367
20
6.5928006
11
9.5078367
21
6.7389734
0
LINE
8
DEFAULT_255_1_604
10
10.6782636
20
6.9352627
11
10.4767539
21
6.9352627
0
LINE
8
DEFAULT_255_1_604
10
9.7093464
20
6.733753
11
9.7093464
21
6.586536
0
ARC
8
DEFAULT_255_1_604
10
9.9657895
20
6.4637063
40
0.7166915
50
340.1775576
51
353.7812106
0
ARC
8
DEFAULT_255_1_604
10
10.1700753
20
6.3876204
40
0.4987141
50
311.4559504
51
340.4421488
0
ARC
8
DEFAULT_255_1_604
10
10.165744
20
6.4020398
40
0.5124271
50
282.4333086
51
310.7514973
0
ARC
8
DEFAULT_255_1_604
10
10.1086424
20
6.6379955
40
0.7551593
50
269.9357733
51
282.8096752
0
ARC
8
DEFAULT_255_1_604
10
10.1019319
20
6.817238
40
0.9344198
50
269.9995741
51
270.3595627
0
ARC
8
DEFAULT_255_1_604
10
10.0950553
20
6.4894123
40
0.6066331
50
250.7885824
51
270.6488458
0
ARC
8
DEFAULT_255_1_604
10
10.0731957
20
6.4065678
40
0.521251
50
219.3628447
51
250.061101
0
ARC
8
DEFAULT_255_1_604
10
10.1809907
20
6.4981776
40
0.6626984
50
193.5480378
51
219.5756113
0
ARC
8
DEFAULT_255_1_604
10
10.4893091
20
6.5782402
40
0.981209
50
181.1220108
51
193.8755006
0
ARC
8
DEFAULT_255_1_604
10
10.7576967
20
6.5926154
40
1.2498599
50
179.99151
51
181.5399535
0
ARC
8
DEFAULT_255_1_604
10
10.5178098
20
6.7438326
40
1.0099848
50
169.583756
51
180.2756585
0
ARC
8
DEFAULT_255_1_604
10
10.2789816
20
6.787961
40
0.7671142
50
155.0365328
51
169.6003042
0
ARC
8
DEFAULT_255_1_604
10
10.1313717
20
6.8591249
40
0.6032646
50
136.7831839
51
155.2472054
0
ARC
8
DEFAULT_255_1_604
10
10.0807271
20
6.9021472
40
0.5369068
50
121.7631907
51
136.4282303
0
ARC
8
DEFAULT_255_1_604
10
10.0982787
20
6.8697227
40
0.5737183
50
95.6460587
51
121.548908
0
ARC
8
DEFAULT_255_1_604
10
10.1187239
20
6.7256699
40
0.7191102
50
89.924257
51
96.1379577
0
ARC
8
DEFAULT_255_1_604
10
10.1252784
20
6.7410691
40
0.7037327
50
76.6779318
51
90.4562576
0
ARC
8
DEFAULT_255_1_604
10
10.17645
20
6.9478426
40
0.4907369
50
47.4858007
51
76.9288246
0
ARC
8
DEFAULT_255_1_604
10
10.1573372
20
6.9348476
40
0.5132589
50
16.5423853
51
46.8934164
0
ARC
8
DEFAULT_255_1_604
10
9.9483016
20
6.8661658
40
0.7332251
50
5.4074004
51
17.0363574
0
ARC
8
DEFAULT_255_1_604
10
9.7612936
20
6.8361239
40
0.7222963
50
7.8890383
51
15.9241503
0
ARC
8
DEFAULT_255_1_604
10
10.0195738
20
6.911123
40
0.4533522
50
15.7651386
51
27.9411443
0
ARC
8
DEFAULT_255_1_604
10
10.1631039
20
6.9879644
40
0.2905491
50
27.8167389
51
46.4005855
0
ARC
8
DEFAULT_255_1_604
10
10.1695606
20
6.9872241
40
0.2866793
50
47.4371997
51
75.0696919
0
ARC
8
DEFAULT_255_1_604
10
10.1294467
20
6.8475784
40
0.4319546
50
74.7008352
51
87.8127327
0
ARC
8
DEFAULT_255_1_604
10
10.1199236
20
6.7107229
40
0.5690901
50
87.3805145
51
90.0250812
0
ARC
8
DEFAULT_255_1_604
10
10.114916
20
6.8633605
40
0.4164797
50
89.345352
51
108.5744563
0
ARC
8
DEFAULT_255_1_604
10
10.0971197
20
6.9301339
40
0.3475436
50
109.2999369
51
143.3037548
0
ARC
8
DEFAULT_255_1_604
10
10.1961789
20
6.8539572
40
0.4724957
50
143.0752268
51
163.191912
0
ARC
8
DEFAULT_255_1_604
10
10.4498999
20
6.7738881
40
0.7385381
50
162.9373961
51
174.620923
0
ARC
8
DEFAULT_255_1_604
10
10.7913435
20
6.7364498
40
1.0820005
50
174.3421243
51
180.1428039
0
ARC
8
DEFAULT_255_1_604
10
10.6702593
20
6.5811981
40
0.9609277
50
179.6817205
51
189.1506051
0
ARC
8
DEFAULT_255_1_604
10
10.3451786
20
6.5270528
40
0.631376
50
188.9910195
51
203.5773417
0
ARC
8
DEFAULT_255_1_604
10
10.2048279
20
6.4688173
40
0.4794561
50
203.9076808
51
215.1312703
0
ARC
8
DEFAULT_255_1_604
10
10.0848574
20
6.3758376
40
0.3279095
50
213.9072132
51
263.884848
0
ARC
8
DEFAULT_255_1_604
10
10.1011508
20
6.4778474
40
0.4311075
50
263.1759381
51
270.1028896
0
ARC
8
DEFAULT_255_1_604
10
10.1053207
20
6.6399256
40
0.5931948
50
269.6720046
51
279.0607459
0
ARC
8
DEFAULT_255_1_604
10
10.1399983
20
6.4302999
40
0.3807256
50
278.8752379
51
293.6348896
0
ARC
8
DEFAULT_255_1_604
10
10.1816259
20
6.3325418
40
0.274481
50
293.8553414
51
310.0519576
0
ARC
8
DEFAULT_255_1_604
10
10.1822566
20
6.3244329
40
0.26791
50
311.0646716
51
332.0108643
0
ARC
8
DEFAULT_255_1_604
10
10.027278
20
6.4098962
40
0.4448784
50
331.6586146
51
343.2879852
0
ARC
8
DEFAULT_255_1_604
10
9.7591178
20
6.4923017
40
0.7254111
50
343.144835
51
351.0104737
0
ARC
8
DEFAULT_255_1_604
10
9.5501404
20
6.5302212
40
0.9377591
50
350.7171884
51
351.1575273
0
LINE
8
DEFAULT_255_1_604
10
9.0244429
20
2.1395063
11
9.0244429
21
0.612
0
LINE
8
DEFAULT_255_1_604
10
9.0244429
20
0.612
11
8.8302418
21
0.612
0
LINE
8
DEFAULT_255_1_604
10
8.8302418
20
0.612
11
8.8302418
21
1.8993652
0
LINE
8
DEFAULT_255_1_604
10
8.8302418
20
1.8993652
11
8.4407956
21
1.7563246
0
LINE
8
DEFAULT_255_1_604
10
8.4407956
20
1.7563246
11
8.4407956
21
1.931732
0
LINE
8
DEFAULT_255_1_604
10
8.4407956
20
1.931732
11
8.9941643
21
2.1395063
0
LINE
8
DEFAULT_255_1_604
10
8.9941643
20
2.1395063
11
9.0244429
21
2.1395063
0
ENDSEC
0
EOF